999
L-System 
999
DXF File
999
Polyline Polyface Meshes
0
SECTION
2
ENTITIES
0
POLYLINE
66
1
8
4
62
4
70
64
0
VERTEX
8
4
10
2.0007438660
20
28.2842712402
30
28.2842178345
70
192
0
VERTEX
8
4
10
2.0010521412
20
0
30
39.9995651245
70
192
0
VERTEX
8
4
10
2.0007438660
20
-28.2842712402
30
28.2842178345
70
192
0
VERTEX
8
4
10
2
20
-39.9996147156
30
-0.0000526031
70
192
0
VERTEX
8
4
10
1.9992561340
20
-28.2842712402
30
-28.2843227386
70
192
0
VERTEX
8
4
10
1.9989479780
20
0
30
-39.9996681213
70
192
0
VERTEX
8
4
10
1.9992561340
20
28.2842712402
30
-28.2843227386
70
192
0
VERTEX
8
4
10
2
20
39.9996147156
30
-0.0000526031
70
192
0
VERTEX
8
4
10
-97.9992523193
20
28.2842712402
30
28.2868480682
70
192
0
VERTEX
8
4
10
-97.9989471436
20
0
30
40.0021934509
70
192
0
VERTEX
8
4
10
-97.9992523193
20
-28.2842712402
30
28.2868480682
70
192
0
VERTEX
8
4
10
-98
20
-39.9996147156
30
0.0025775509
70
192
0
VERTEX
8
4
10
-98.0007476807
20
-28.2842712402
30
-28.2816925049
70
192
0
VERTEX
8
4
10
-98.0010528564
20
0
30
-39.9970397949
70
192
0
VERTEX
8
4
10
-98.0007476807
20
28.2842712402
30
-28.2816925049
70
192
0
VERTEX
8
4
10
-98
20
39.9996147156
30
0.0025775509
70
192
0
VERTEX
8
4
10
0
20
0
30
0
70
128
71
1
72
9
73
10
74
2
0
VERTEX
8
4
10
0
20
0
30
0
70
128
71
2
72
10
73
11
74
3
0
VERTEX
8
4
10
0
20
0
30
0
70
128
71
3
72
11
73
12
74
4
0
VERTEX
8
4
10
0
20
0
30
0
70
128
71
4
72
12
73
13
74
5
0
VERTEX
8
4
10
0
20
0
30
0
70
128
71
5
72
13
73
14
74
6
0
VERTEX
8
4
10
0
20
0
30
0
70
128
71
6
72
14
73
15
74
7
0
VERTEX
8
4
10
0
20
0
30
0
70
128
71
7
72
15
73
16
74
8
0
VERTEX
8
4
10
0
20
0
30
0
70
128
71
8
72
16
73
9
74
1
0
SEQEND
8
4
0
POLYLINE
66
1
8
7
62
7
70
64
0
VERTEX
8
7
10
-96.1506195068
20
21.2132053375
30
21.1350154877
70
192
0
VERTEX
8
7
10
-95.3846130371
20
0
30
29.8880710602
70
192
0
VERTEX
8
7
10
-96.1506195068
20
-21.2132053375
30
21.1350154877
70
192
0
VERTEX
8
7
10
-98
20
-29.9997158051
30
0.0025775509
70
192
0
VERTEX
8
7
10
-99.8493804932
20
-21.2132053375
30
-21.1298599243
70
192
0
VERTEX
8
7
10
-100.6153869629
20
0
30
-29.8829154968
70
192
0
VERTEX
8
7
10
-99.8493804932
20
21.2132053375
30
-21.1298599243
70
192
0
VERTEX
8
7
10
-98
20
29.9997158051
30
0.0025775509
70
192
0
VERTEX
8
7
10
-170.8650665283
20
21.2132053375
30
27.6735515594
70
192
0
VERTEX
8
7
10
-170.0990600586
20
0
30
36.4266090393
70
192
0
VERTEX
8
7
10
-170.8650665283
20
-21.2132053375
30
27.6735515594
70
192
0
VERTEX
8
7
10
-172.7144470215
20
-29.9997158051
30
6.5411143303
70
192
0
VERTEX
8
7
10
-174.5638275146
20
-21.2132053375
30
-14.5913238525
70
192
0
VERTEX
8
7
10
-175.3298339844
20
0
30
-23.3443794250
70
192
0
VERTEX
8
7
10
-174.5638275146
20
21.2132053375
30
-14.5913238525
70
192
0
VERTEX
8
7
10
-172.7144470215
20
29.9997158051
30
6.5411143303
70
192
0
VERTEX
8
7
10
0
20
0
30
0
70
128
71
1
72
9
73
10
74
2
0
VERTEX
8
7
10
0
20
0
30
0
70
128
71
2
72
10
73
11
74
3
0
VERTEX
8
7
10
0
20
0
30
0
70
128
71
3
72
11
73
12
74
4
0
VERTEX
8
7
10
0
20
0
30
0
70
128
71
4
72
12
73
13
74
5
0
VERTEX
8
7
10
0
20
0
30
0
70
128
71
5
72
13
73
14
74
6
0
VERTEX
8
7
10
0
20
0
30
0
70
128
71
6
72
14
73
15
74
7
0
VERTEX
8
7
10
0
20
0
30
0
70
128
71
7
72
15
73
16
74
8
0
VERTEX
8
7
10
0
20
0
30
0
70
128
71
8
72
16
73
9
74
1
0
SEQEND
8
7
0
POLYLINE
66
1
8
7
62
7
70
64
0
VERTEX
8
7
10
-170.8650665283
20
21.2132053375
30
27.6735515594
70
192
0
VERTEX
8
7
10
-170.0990600586
20
0
30
36.4266090393
70
192
0
VERTEX
8
7
10
-170.8650665283
20
-21.2132053375
30
27.6735515594
70
192
0
VERTEX
8
7
10
-172.7144470215
20
-29.9997158051
30
6.5411143303
70
192
0
VERTEX
8
7
10
-174.5638275146
20
-21.2132053375
30
-14.5913238525
70
192
0
VERTEX
8
7
10
-175.3298339844
20
0
30
-23.3443794250
70
192
0
VERTEX
8
7
10
-174.5638275146
20
21.2132053375
30
-14.5913238525
70
192
0
VERTEX
8
7
10
-172.7144470215
20
29.9997158051
30
6.5411143303
70
192
0
VERTEX
8
7
10
-225.3465576172
20
15.9099006653
30
31.9782485962
70
192
0
VERTEX
8
7
10
-224.2020874023
20
0
30
38.4679870605
70
192
0
VERTEX
8
7
10
-225.3465576172
20
-15.9099006653
30
31.9782485962
70
192
0
VERTEX
8
7
10
-228.1096496582
20
-22.4997825623
30
16.3101196289
70
192
0
VERTEX
8
7
10
-230.8727416992
20
-15.9099006653
30
0.6419897079
70
192
0
VERTEX
8
7
10
-232.0172119141
20
0
30
-5.8477497101
70
192
0
VERTEX
8
7
10
-230.8727416992
20
15.9099006653
30
0.6419897079
70
192
0
VERTEX
8
7
10
-228.1096496582
20
22.4997825623
30
16.3101196289
70
192
0
VERTEX
8
7
10
0
20
0
30
0
70
128
71
1
72
9
73
10
74
2
0
VERTEX
8
7
10
0
20
0
30
0
70
128
71
2
72
10
73
11
74
3
0
VERTEX
8
7
10
0
20
0
30
0
70
128
71
3
72
11
73
12
74
4
0
VERTEX
8
7
10
0
20
0
30
0
70
128
71
4
72
12
73
13
74
5
0
VERTEX
8
7
10
0
20
0
30
0
70
128
71
5
72
13
73
14
74
6
0
VERTEX
8
7
10
0
20
0
30
0
70
128
71
6
72
14
73
15
74
7
0
VERTEX
8
7
10
0
20
0
30
0
70
128
71
7
72
15
73
16
74
8
0
VERTEX
8
7
10
0
20
0
30
0
70
128
71
8
72
16
73
9
74
1
0
SEQEND
8
7
0
POLYLINE
66
1
8
7
62
7
70
64
0
VERTEX
8
7
10
-225.3465576172
20
15.9099006653
30
31.9782485962
70
192
0
VERTEX
8
7
10
-224.2020874023
20
0
30
38.4679870605
70
192
0
VERTEX
8
7
10
-225.3465576172
20
-15.9099006653
30
31.9782485962
70
192
0
VERTEX
8
7
10
-228.1096496582
20
-22.4997825623
30
16.3101196289
70
192
0
VERTEX
8
7
10
-230.8727416992
20
-15.9099006653
30
0.6419897079
70
192
0
VERTEX
8
7
10
-232.0172119141
20
0
30
-5.8477497101
70
192
0
VERTEX
8
7
10
-230.8727416992
20
15.9099006653
30
0.6419897079
70
192
0
VERTEX
8
7
10
-228.1096496582
20
22.4997825623
30
16.3101196289
70
192
0
VERTEX
8
7
10
-265.7708129883
20
11.9324254990
30
38.7557144165
70
192
0
VERTEX
8
7
10
-264.4915161133
20
0
30
43.5296897888
70
192
0
VERTEX
8
7
10
-265.7708129883
20
-11.9324254990
30
38.7557144165
70
192
0
VERTEX
8
7
10
-268.8594055176
20
-16.8748378754
30
27.2299423218
70
192
0
VERTEX
8
7
10
-271.9479980469
20
-11.9324254990
30
15.7041711807
70
192
0
VERTEX
8
7
10
-273.2272949219
20
0
30
10.9301958084
70
192
0
VERTEX
8
7
10
-271.9479980469
20
11.9324254990
30
15.7041711807
70
192
0
VERTEX
8
7
10
-268.8594055176
20
16.8748378754
30
27.2299423218
70
192
0
VERTEX
8
7
10
0
20
0
30
0
70
128
71
1
72
9
73
10
74
2
0
VERTEX
8
7
10
0
20
0
30
0
70
128
71
2
72
10
73
11
74
3
0
VERTEX
8
7
10
0
20
0
30
0
70
128
71
3
72
11
73
12
74
4
0
VERTEX
8
7
10
0
20
0
30
0
70
128
71
4
72
12
73
13
74
5
0
VERTEX
8
7
10
0
20
0
30
0
70
128
71
5
72
13
73
14
74
6
0
VERTEX
8
7
10
0
20
0
30
0
70
128
71
6
72
14
73
15
74
7
0
VERTEX
8
7
10
0
20
0
30
0
70
128
71
7
72
15
73
16
74
8
0
VERTEX
8
7
10
0
20
0
30
0
70
128
71
8
72
16
73
9
74
1
0
SEQEND
8
7
0
POLYLINE
66
1
8
7
62
7
70
64
0
VERTEX
8
7
10
-265.7708129883
20
11.9324254990
30
38.7557144165
70
192
0
VERTEX
8
7
10
-264.4915161133
20
0
30
43.5296897888
70
192
0
VERTEX
8
7
10
-265.7708129883
20
-11.9324254990
30
38.7557144165
70
192
0
VERTEX
8
7
10
-268.8594055176
20
-16.8748378754
30
27.2299423218
70
192
0
VERTEX
8
7
10
-271.9479980469
20
-11.9324254990
30
15.7041711807
70
192
0
VERTEX
8
7
10
-273.2272949219
20
0
30
10.9301958084
70
192
0
VERTEX
8
7
10
-271.9479980469
20
11.9324254990
30
15.7041711807
70
192
0
VERTEX
8
7
10
-268.8594055176
20
16.8748378754
30
27.2299423218
70
192
0
VERTEX
8
7
10
-295.5306396484
20
8.9493188858
30
46.4618263245
70
192
0
VERTEX
8
7
10
-294.2627563477
20
0
30
49.9450607300
70
192
0
VERTEX
8
7
10
-295.5306396484
20
-8.9493188858
30
46.4618263245
70
192
0
VERTEX
8
7
10
-298.5916442871
20
-12.6561269760
30
38.0522804260
70
192
0
VERTEX
8
7
10
-301.6526489258
20
-8.9493188858
30
29.6427345276
70
192
0
VERTEX
8
7
10
-302.9205322266
20
0
30
26.1595001221
70
192
0
VERTEX
8
7
10
-301.6526489258
20
8.9493188858
30
29.6427345276
70
192
0
VERTEX
8
7
10
-298.5916442871
20
12.6561269760
30
38.0522804260
70
192
0
VERTEX
8
7
10
0
20
0
30
0
70
128
71
1
72
9
73
10
74
2
0
VERTEX
8
7
10
0
20
0
30
0
70
128
71
2
72
10
73
11
74
3
0
VERTEX
8
7
10
0
20
0
30
0
70
128
71
3
72
11
73
12
74
4
0
VERTEX
8
7
10
0
20
0
30
0
70
128
71
4
72
12
73
13
74
5
0
VERTEX
8
7
10
0
20
0
30
0
70
128
71
5
72
13
73
14
74
6
0
VERTEX
8
7
10
0
20
0
30
0
70
128
71
6
72
14
73
15
74
7
0
VERTEX
8
7
10
0
20
0
30
0
70
128
71
7
72
15
73
16
74
8
0
VERTEX
8
7
10
0
20
0
30
0
70
128
71
8
72
16
73
9
74
1
0
SEQEND
8
7
0
POLYLINE
66
1
8
7
62
7
70
64
0
VERTEX
8
7
10
-295.5306396484
20
8.9493188858
30
46.4618263245
70
192
0
VERTEX
8
7
10
-294.2627563477
20
0
30
49.9450607300
70
192
0
VERTEX
8
7
10
-295.5306396484
20
-8.9493188858
30
46.4618263245
70
192
0
VERTEX
8
7
10
-298.5916442871
20
-12.6561269760
30
38.0522804260
70
192
0
VERTEX
8
7
10
-301.6526489258
20
-8.9493188858
30
29.6427345276
70
192
0
VERTEX
8
7
10
-302.9205322266
20
0
30
26.1595001221
70
192
0
VERTEX
8
7
10
-301.6526489258
20
8.9493188858
30
29.6427345276
70
192
0
VERTEX
8
7
10
-298.5916442871
20
12.6561269760
30
38.0522804260
70
192
0
VERTEX
8
7
10
-317.2618408203
20
6.7119927406
30
54.1646957397
70
192
0
VERTEX
8
7
10
-316.0868835449
20
0
30
56.6843070984
70
192
0
VERTEX
8
7
10
-317.2618408203
20
-6.7119927406
30
54.1646957397
70
192
0
VERTEX
8
7
10
-320.0985717773
20
-9.4920997620
30
48.0816192627
70
192
0
VERTEX
8
7
10
-322.9353027344
20
-6.7119927406
30
41.9985427856
70
192
0
VERTEX
8
7
10
-324.1102600098
20
0
30
39.4789314270
70
192
0
VERTEX
8
7
10
-322.9353027344
20
6.7119927406
30
41.9985427856
70
192
0
VERTEX
8
7
10
-320.0985717773
20
9.4920997620
30
48.0816192627
70
192
0
VERTEX
8
7
10
0
20
0
30
0
70
128
71
1
72
9
73
10
74
2
0
VERTEX
8
7
10
0
20
0
30
0
70
128
71
2
72
10
73
11
74
3
0
VERTEX
8
7
10
0
20
0
30
0
70
128
71
3
72
11
73
12
74
4
0
VERTEX
8
7
10
0
20
0
30
0
70
128
71
4
72
12
73
13
74
5
0
VERTEX
8
7
10
0
20
0
30
0
70
128
71
5
72
13
73
14
74
6
0
VERTEX
8
7
10
0
20
0
30
0
70
128
71
6
72
14
73
15
74
7
0
VERTEX
8
7
10
0
20
0
30
0
70
128
71
7
72
15
73
16
74
8
0
VERTEX
8
7
10
0
20
0
30
0
70
128
71
8
72
16
73
9
74
1
0
SEQEND
8
7
0
POLYLINE
66
1
8
7
62
7
70
64
0
VERTEX
8
7
10
-317.2618408203
20
6.7119927406
30
54.1646957397
70
192
0
VERTEX
8
7
10
-316.0868835449
20
0
30
56.6843070984
70
192
0
VERTEX
8
7
10
-317.2618408203
20
-6.7119927406
30
54.1646957397
70
192
0
VERTEX
8
7
10
-320.0985717773
20
-9.4920997620
30
48.0816192627
70
192
0
VERTEX
8
7
10
-322.9353027344
20
-6.7119927406
30
41.9985427856
70
192
0
VERTEX
8
7
10
-324.1102600098
20
0
30
39.4789314270
70
192
0
VERTEX
8
7
10
-322.9353027344
20
6.7119927406
30
41.9985427856
70
192
0
VERTEX
8
7
10
-320.0985717773
20
9.4920997620
30
48.0816192627
70
192
0
VERTEX
8
7
10
-332.9947509766
20
5.0339937210
30
61.3403396606
70
192
0
VERTEX
8
7
10
-331.9521789551
20
0
30
63.1460533142
70
192
0
VERTEX
8
7
10
-332.9947509766
20
-5.0339937210
30
61.3403396606
70
192
0
VERTEX
8
7
10
-335.5118103027
20
-7.1190738678
30
56.9808158875
70
192
0
VERTEX
8
7
10
-338.0288696289
20
-5.0339937210
30
52.6212921143
70
192
0
VERTEX
8
7
10
-339.0714416504
20
0
30
50.8155784607
70
192
0
VERTEX
8
7
10
-338.0288696289
20
5.0339937210
30
52.6212921143
70
192
0
VERTEX
8
7
10
-335.5118103027
20
7.1190738678
30
56.9808158875
70
192
0
VERTEX
8
7
10
0
20
0
30
0
70
128
71
1
72
9
73
10
74
2
0
VERTEX
8
7
10
0
20
0
30
0
70
128
71
2
72
10
73
11
74
3
0
VERTEX
8
7
10
0
20
0
30
0
70
128
71
3
72
11
73
12
74
4
0
VERTEX
8
7
10
0
20
0
30
0
70
128
71
4
72
12
73
13
74
5
0
VERTEX
8
7
10
0
20
0
30
0
70
128
71
5
72
13
73
14
74
6
0
VERTEX
8
7
10
0
20
0
30
0
70
128
71
6
72
14
73
15
74
7
0
VERTEX
8
7
10
0
20
0
30
0
70
128
71
7
72
15
73
16
74
8
0
VERTEX
8
7
10
0
20
0
30
0
70
128
71
8
72
16
73
9
74
1
0
SEQEND
8
7
0
POLYLINE
66
1
8
2
62
2
70
64
0
VERTEX
8
2
10
0
20
0
30
0
70
192
0
VERTEX
8
2
10
64.2787628174
20
-69.4265899658
30
32.3757553101
70
192
0
VERTEX
8
2
10
128.5575256348
20
-138.8531799316
30
64.7515106201
70
192
0
VERTEX
8
2
10
192.8362884521
20
-208.2797698975
30
97.1272659302
70
192
0
VERTEX
8
2
10
192.8362884521
20
-298.9097595215
30
139.3908081055
70
192
0
VERTEX
8
2
10
149.5350189209
20
-321.5672607422
30
149.9566955566
70
192
0
VERTEX
8
2
10
51.0542335510
20
-305.8295288086
30
142.6177062988
70
192
0
VERTEX
8
2
10
-13.2245359421
20
-236.4029541016
30
110.2419509888
70
192
0
VERTEX
8
2
10
0
20
0
30
0
70
128
71
1
72
2
73
3
74
3
0
VERTEX
8
2
10
0
20
0
30
0
70
128
71
1
72
3
73
4
74
4
0
VERTEX
8
2
10
0
20
0
30
0
70
128
71
1
72
4
73
5
74
5
0
VERTEX
8
2
10
0
20
0
30
0
70
128
71
1
72
5
73
6
74
6
0
VERTEX
8
2
10
0
20
0
30
0
70
128
71
1
72
6
73
7
74
7
0
VERTEX
8
2
10
0
20
0
30
0
70
128
71
1
72
7
73
8
74
8
0
SEQEND
8
2
0
POLYLINE
66
1
8
3
62
3
70
64
0
VERTEX
8
3
10
0
20
0
30
0
70
192
0
VERTEX
8
3
10
-8.7154293060
20
-90.2851181030
30
42.1027297974
70
192
0
VERTEX
8
3
10
-17.4308586121
20
-180.5702362061
30
84.2054595947
70
192
0
VERTEX
8
3
10
-108.0615768433
20
-218.8722381592
30
102.0668640137
70
192
0
VERTEX
8
3
10
-204.6542053223
20
-195.4156036377
30
91.1283111572
70
192
0
VERTEX
8
3
10
-233.3330841064
20
-158.2957763672
30
73.8181915283
70
192
0
VERTEX
8
3
10
-191.0713958740
20
-76.1570587158
30
35.5143775940
70
192
0
VERTEX
8
3
10
0
20
0
30
0
70
128
71
1
72
2
73
3
74
3
0
VERTEX
8
3
10
0
20
0
30
0
70
128
71
1
72
3
73
4
74
4
0
VERTEX
8
3
10
0
20
0
30
0
70
128
71
1
72
4
73
5
74
5
0
VERTEX
8
3
10
0
20
0
30
0
70
128
71
1
72
5
73
6
74
6
0
VERTEX
8
3
10
0
20
0
30
0
70
128
71
1
72
6
73
7
74
7
0
SEQEND
8
3
0
POLYLINE
66
1
8
2
62
2
70
64
0
VERTEX
8
2
10
0
20
0
30
0
70
192
0
VERTEX
8
2
10
64.2787628174
20
69.4282836914
30
32.3721122742
70
192
0
VERTEX
8
2
10
128.5575256348
20
138.8565673828
30
64.7442245483
70
192
0
VERTEX
8
2
10
192.8362884521
20
208.2848510742
30
97.1163330078
70
192
0
VERTEX
8
2
10
192.8362884521
20
298.9170532227
30
139.3751220703
70
192
0
VERTEX
8
2
10
149.5350189209
20
321.5751037598
30
149.9398193359
70
192
0
VERTEX
8
2
10
51.0542411804
20
305.8369750977
30
142.6016540527
70
192
0
VERTEX
8
2
10
-13.2245159149
20
236.4086761475
30
110.2295379639
70
192
0
VERTEX
8
2
10
0
20
0
30
0
70
128
71
1
72
2
73
3
74
3
0
VERTEX
8
2
10
0
20
0
30
0
70
128
71
1
72
3
73
4
74
4
0
VERTEX
8
2
10
0
20
0
30
0
70
128
71
1
72
4
73
5
74
5
0
VERTEX
8
2
10
0
20
0
30
0
70
128
71
1
72
5
73
6
74
6
0
VERTEX
8
2
10
0
20
0
30
0
70
128
71
1
72
6
73
7
74
7
0
VERTEX
8
2
10
0
20
0
30
0
70
128
71
1
72
7
73
8
74
8
0
SEQEND
8
2
0
POLYLINE
66
1
8
3
62
3
70
64
0
VERTEX
8
3
10
0
20
0
30
0
70
192
0
VERTEX
8
3
10
-8.7154293060
20
90.2873229980
30
42.0979881287
70
192
0
VERTEX
8
3
10
-17.4308586121
20
180.5746459961
30
84.1959762573
70
192
0
VERTEX
8
3
10
-108.0615768433
20
218.8775787354
30
102.0553665161
70
192
0
VERTEX
8
3
10
-204.6541900635
20
195.4203643799
30
91.1180419922
70
192
0
VERTEX
8
3
10
-233.3330688477
20
158.2996215820
30
73.8098678589
70
192
0
VERTEX
8
3
10
-191.0713653564
20
76.1589126587
30
35.5103683472
70
192
0
VERTEX
8
3
10
0
20
0
30
0
70
128
71
1
72
2
73
3
74
3
0
VERTEX
8
3
10
0
20
0
30
0
70
128
71
1
72
3
73
4
74
4
0
VERTEX
8
3
10
0
20
0
30
0
70
128
71
1
72
4
73
5
74
5
0
VERTEX
8
3
10
0
20
0
30
0
70
128
71
1
72
5
73
6
74
6
0
VERTEX
8
3
10
0
20
0
30
0
70
128
71
1
72
6
73
7
74
7
0
SEQEND
8
3
0
POLYLINE
66
1
8
5
62
5
70
64
0
VERTEX
8
5
10
0.2998992205
20
-0.2818131149
30
-0.3703670204
70
192
0
VERTEX
8
5
10
0.4241175354
20
0.1217170581
30
-0.3344148695
70
192
0
VERTEX
8
5
10
0.2998992801
20
0.4539486766
30
-0.1025715545
70
192
0
VERTEX
8
5
10
0.0000000233
20
0.5202571750
30
0.1893581897
70
192
0
VERTEX
8
5
10
-0.2998992205
20
0.2818131149
30
0.3703670204
70
192
0
VERTEX
8
5
10
-0.4241175354
20
-0.1217170581
30
0.3344148695
70
192
0
VERTEX
8
5
10
-0.2998992801
20
-0.4539486766
30
0.1025715545
70
192
0
VERTEX
8
5
10
-0.0000000233
20
-0.5202571750
30
-0.1893581897
70
192
0
VERTEX
8
5
10
-63.9788703918
20
25.9184589386
30
-72.3549957275
70
192
0
VERTEX
8
5
10
-63.8546524048
20
26.3219890594
30
-72.3190383911
70
192
0
VERTEX
8
5
10
-63.9788703918
20
26.6542205811
30
-72.0871963501
70
192
0
VERTEX
8
5
10
-64.2787704468
20
26.7205295563
30
-71.7952651978
70
192
0
VERTEX
8
5
10
-64.5786666870
20
26.4820842743
30
-71.6142578125
70
192
0
VERTEX
8
5
10
-64.7028884888
20
26.0785541534
30
-71.6502151489
70
192
0
VERTEX
8
5
10
-64.5786666870
20
25.7463226318
30
-71.8820571899
70
192
0
VERTEX
8
5
10
-64.2787704468
20
25.6800136566
30
-72.1739883423
70
192
0
VERTEX
8
5
10
0
20
0
30
0
70
128
71
1
72
9
73
10
74
2
0
VERTEX
8
5
10
0
20
0
30
0
70
128
71
2
72
10
73
11
74
3
0
VERTEX
8
5
10
0
20
0
30
0
70
128
71
3
72
11
73
12
74
4
0
VERTEX
8
5
10
0
20
0
30
0
70
128
71
4
72
12
73
13
74
5
0
VERTEX
8
5
10
0
20
0
30
0
70
128
71
5
72
13
73
14
74
6
0
VERTEX
8
5
10
0
20
0
30
0
70
128
71
6
72
14
73
15
74
7
0
VERTEX
8
5
10
0
20
0
30
0
70
128
71
7
72
15
73
16
74
8
0
VERTEX
8
5
10
0
20
0
30
0
70
128
71
8
72
16
73
9
74
1
0
SEQEND
8
5
0
POLYLINE
66
1
8
5
62
5
70
64
0
VERTEX
8
5
10
-63.9788703918
20
25.9184589386
30
-72.3549957275
70
192
0
VERTEX
8
5
10
-63.8546524048
20
26.3219890594
30
-72.3190383911
70
192
0
VERTEX
8
5
10
-63.9788703918
20
26.6542205811
30
-72.0871963501
70
192
0
VERTEX
8
5
10
-64.2787704468
20
26.7205295563
30
-71.7952651978
70
192
0
VERTEX
8
5
10
-64.5786666870
20
26.4820842743
30
-71.6142578125
70
192
0
VERTEX
8
5
10
-64.7028884888
20
26.0785541534
30
-71.6502151489
70
192
0
VERTEX
8
5
10
-64.5786666870
20
25.7463226318
30
-71.8820571899
70
192
0
VERTEX
8
5
10
-64.2787704468
20
25.6800136566
30
-72.1739883423
70
192
0
VERTEX
8
5
10
-107.4821777344
20
34.6248168945
30
-95.7031860352
70
192
0
VERTEX
8
5
10
-107.4416351318
20
34.8327713013
30
-95.7022171021
70
192
0
VERTEX
8
5
10
-107.4821777344
20
34.9926986694
30
-95.5692825317
70
192
0
VERTEX
8
5
10
-107.5800476074
20
35.0109062195
30
-95.3822555542
70
192
0
VERTEX
8
5
10
-107.6779174805
20
34.8767395020
30
-95.2506866455
70
192
0
VERTEX
8
5
10
-107.7184600830
20
34.6687850952
30
-95.2516555786
70
192
0
VERTEX
8
5
10
-107.6779174805
20
34.5088577271
30
-95.3845901489
70
192
0
VERTEX
8
5
10
-107.5800476074
20
34.4906501770
30
-95.5716171265
70
192
0
VERTEX
8
5
10
0
20
0
30
0
70
128
71
1
72
9
73
10
74
2
0
VERTEX
8
5
10
0
20
0
30
0
70
128
71
2
72
10
73
11
74
3
0
VERTEX
8
5
10
0
20
0
30
0
70
128
71
3
72
11
73
12
74
4
0
VERTEX
8
5
10
0
20
0
30
0
70
128
71
4
72
12
73
13
74
5
0
VERTEX
8
5
10
0
20
0
30
0
70
128
71
5
72
13
73
14
74
6
0
VERTEX
8
5
10
0
20
0
30
0
70
128
71
6
72
14
73
15
74
7
0
VERTEX
8
5
10
0
20
0
30
0
70
128
71
7
72
15
73
16
74
8
0
VERTEX
8
5
10
0
20
0
30
0
70
128
71
8
72
16
73
9
74
1
0
SEQEND
8
5
0
POLYLINE
66
1
8
5
62
5
70
64
0
VERTEX
8
5
10
-107.4821777344
20
34.6248168945
30
-95.7031860352
70
192
0
VERTEX
8
5
10
-107.4416351318
20
34.8327713013
30
-95.7022171021
70
192
0
VERTEX
8
5
10
-107.4821777344
20
34.9926986694
30
-95.5692825317
70
192
0
VERTEX
8
5
10
-107.5800476074
20
35.0109062195
30
-95.3822555542
70
192
0
VERTEX
8
5
10
-107.6779174805
20
34.8767395020
30
-95.2506866455
70
192
0
VERTEX
8
5
10
-107.7184600830
20
34.6687850952
30
-95.2516555786
70
192
0
VERTEX
8
5
10
-107.6779174805
20
34.5088577271
30
-95.3845901489
70
192
0
VERTEX
8
5
10
-107.5800476074
20
34.4906501770
30
-95.5716171265
70
192
0
VERTEX
8
5
10
-156.7864379883
20
37.6023292542
30
-103.8838195801
70
192
0
VERTEX
8
5
10
-156.7723693848
20
37.8135757446
30
-103.8919067383
70
192
0
VERTEX
8
5
10
-156.7864379883
20
37.9702072144
30
-103.7499237061
70
192
0
VERTEX
8
5
10
-156.8204345703
20
37.9804649353
30
-103.5410461426
70
192
0
VERTEX
8
5
10
-156.8544311523
20
37.8383445740
30
-103.3876342773
70
192
0
VERTEX
8
5
10
-156.8684997559
20
37.6270980835
30
-103.3795471191
70
192
0
VERTEX
8
5
10
-156.8544311523
20
37.4704666138
30
-103.5215301514
70
192
0
VERTEX
8
5
10
-156.8204345703
20
37.4602088928
30
-103.7304077148
70
192
0
VERTEX
8
5
10
0
20
0
30
0
70
128
71
1
72
9
73
10
74
2
0
VERTEX
8
5
10
0
20
0
30
0
70
128
71
2
72
10
73
11
74
3
0
VERTEX
8
5
10
0
20
0
30
0
70
128
71
3
72
11
73
12
74
4
0
VERTEX
8
5
10
0
20
0
30
0
70
128
71
4
72
12
73
13
74
5
0
VERTEX
8
5
10
0
20
0
30
0
70
128
71
5
72
13
73
14
74
6
0
VERTEX
8
5
10
0
20
0
30
0
70
128
71
6
72
14
73
15
74
7
0
VERTEX
8
5
10
0
20
0
30
0
70
128
71
7
72
15
73
16
74
8
0
VERTEX
8
5
10
0
20
0
30
0
70
128
71
8
72
16
73
9
74
1
0
SEQEND
8
5
0
POLYLINE
66
1
8
5
62
5
70
64
0
VERTEX
8
5
10
0.2998992801
20
-0.4539486766
30
-0.1025716513
70
192
0
VERTEX
8
5
10
0.4241175354
20
-0.1217170134
30
-0.3344148695
70
192
0
VERTEX
8
5
10
0.2998992801
20
0.2818131745
30
-0.3703669310
70
192
0
VERTEX
8
5
10
0
20
0.5202572346
30
-0.1893580407
70
192
0
VERTEX
8
5
10
-0.2998992801
20
0.4539486766
30
0.1025716513
70
192
0
VERTEX
8
5
10
-0.4241175354
20
0.1217170134
30
0.3344148695
70
192
0
VERTEX
8
5
10
-0.2998992801
20
-0.2818131745
30
0.3703669310
70
192
0
VERTEX
8
5
10
0
20
-0.5202572346
30
0.1893580407
70
192
0
VERTEX
8
5
10
-63.9788627625
20
-26.6542015076
30
-72.0872039795
70
192
0
VERTEX
8
5
10
-63.8546447754
20
-26.3219699860
30
-72.3190460205
70
192
0
VERTEX
8
5
10
-63.9788627625
20
-25.9184398651
30
-72.3550033569
70
192
0
VERTEX
8
5
10
-64.2787628174
20
-25.6799945831
30
-72.1739959717
70
192
0
VERTEX
8
5
10
-64.5786590576
20
-25.7463035583
30
-71.8820648193
70
192
0
VERTEX
8
5
10
-64.7028808594
20
-26.0785350800
30
-71.6502227783
70
192
0
VERTEX
8
5
10
-64.5786590576
20
-26.4820652008
30
-71.6142654419
70
192
0
VERTEX
8
5
10
-64.2787628174
20
-26.7205104828
30
-71.7952728271
70
192
0
VERTEX
8
5
10
0
20
0
30
0
70
128
71
1
72
9
73
10
74
2
0
VERTEX
8
5
10
0
20
0
30
0
70
128
71
2
72
10
73
11
74
3
0
VERTEX
8
5
10
0
20
0
30
0
70
128
71
3
72
11
73
12
74
4
0
VERTEX
8
5
10
0
20
0
30
0
70
128
71
4
72
12
73
13
74
5
0
VERTEX
8
5
10
0
20
0
30
0
70
128
71
5
72
13
73
14
74
6
0
VERTEX
8
5
10
0
20
0
30
0
70
128
71
6
72
14
73
15
74
7
0
VERTEX
8
5
10
0
20
0
30
0
70
128
71
7
72
15
73
16
74
8
0
VERTEX
8
5
10
0
20
0
30
0
70
128
71
8
72
16
73
9
74
1
0
SEQEND
8
5
0
POLYLINE
66
1
8
5
62
5
70
64
0
VERTEX
8
5
10
-63.9788627625
20
-26.6542015076
30
-72.0872039795
70
192
0
VERTEX
8
5
10
-63.8546447754
20
-26.3219699860
30
-72.3190460205
70
192
0
VERTEX
8
5
10
-63.9788627625
20
-25.9184398651
30
-72.3550033569
70
192
0
VERTEX
8
5
10
-64.2787628174
20
-25.6799945831
30
-72.1739959717
70
192
0
VERTEX
8
5
10
-64.5786590576
20
-25.7463035583
30
-71.8820648193
70
192
0
VERTEX
8
5
10
-64.7028808594
20
-26.0785350800
30
-71.6502227783
70
192
0
VERTEX
8
5
10
-64.5786590576
20
-26.4820652008
30
-71.6142654419
70
192
0
VERTEX
8
5
10
-64.2787628174
20
-26.7205104828
30
-71.7952728271
70
192
0
VERTEX
8
5
10
-107.4821624756
20
-34.9926719666
30
-95.5692977905
70
192
0
VERTEX
8
5
10
-107.4416198730
20
-34.8327484131
30
-95.7022323608
70
192
0
VERTEX
8
5
10
-107.4821624756
20
-34.6247901917
30
-95.7032012939
70
192
0
VERTEX
8
5
10
-107.5800323486
20
-34.4906234741
30
-95.5716323853
70
192
0
VERTEX
8
5
10
-107.6779022217
20
-34.5088310242
30
-95.3846054077
70
192
0
VERTEX
8
5
10
-107.7184448242
20
-34.6687545776
30
-95.2516708374
70
192
0
VERTEX
8
5
10
-107.6779022217
20
-34.8767127991
30
-95.2507019043
70
192
0
VERTEX
8
5
10
-107.5800323486
20
-35.0108795166
30
-95.3822708130
70
192
0
VERTEX
8
5
10
0
20
0
30
0
70
128
71
1
72
9
73
10
74
2
0
VERTEX
8
5
10
0
20
0
30
0
70
128
71
2
72
10
73
11
74
3
0
VERTEX
8
5
10
0
20
0
30
0
70
128
71
3
72
11
73
12
74
4
0
VERTEX
8
5
10
0
20
0
30
0
70
128
71
4
72
12
73
13
74
5
0
VERTEX
8
5
10
0
20
0
30
0
70
128
71
5
72
13
73
14
74
6
0
VERTEX
8
5
10
0
20
0
30
0
70
128
71
6
72
14
73
15
74
7
0
VERTEX
8
5
10
0
20
0
30
0
70
128
71
7
72
15
73
16
74
8
0
VERTEX
8
5
10
0
20
0
30
0
70
128
71
8
72
16
73
9
74
1
0
SEQEND
8
5
0
POLYLINE
66
1
8
5
62
5
70
64
0
VERTEX
8
5
10
-107.4821624756
20
-34.9926719666
30
-95.5692977905
70
192
0
VERTEX
8
5
10
-107.4416198730
20
-34.8327484131
30
-95.7022323608
70
192
0
VERTEX
8
5
10
-107.4821624756
20
-34.6247901917
30
-95.7032012939
70
192
0
VERTEX
8
5
10
-107.5800323486
20
-34.4906234741
30
-95.5716323853
70
192
0
VERTEX
8
5
10
-107.6779022217
20
-34.5088310242
30
-95.3846054077
70
192
0
VERTEX
8
5
10
-107.7184448242
20
-34.6687545776
30
-95.2516708374
70
192
0
VERTEX
8
5
10
-107.6779022217
20
-34.8767127991
30
-95.2507019043
70
192
0
VERTEX
8
5
10
-107.5800323486
20
-35.0108795166
30
-95.3822708130
70
192
0
VERTEX
8
5
10
-156.7864379883
20
-37.9701766968
30
-103.7499465942
70
192
0
VERTEX
8
5
10
-156.7723388672
20
-37.8135452271
30
-103.8919296265
70
192
0
VERTEX
8
5
10
-156.7864379883
20
-37.6022987366
30
-103.8838424683
70
192
0
VERTEX
8
5
10
-156.8204193115
20
-37.4601783752
30
-103.7304306030
70
192
0
VERTEX
8
5
10
-156.8544006348
20
-37.4704360962
30
-103.5215530396
70
192
0
VERTEX
8
5
10
-156.8684997559
20
-37.6270675659
30
-103.3795700073
70
192
0
VERTEX
8
5
10
-156.8544006348
20
-37.8383140564
30
-103.3876571655
70
192
0
VERTEX
8
5
10
-156.8204193115
20
-37.9804344177
30
-103.5410690308
70
192
0
VERTEX
8
5
10
0
20
0
30
0
70
128
71
1
72
9
73
10
74
2
0
VERTEX
8
5
10
0
20
0
30
0
70
128
71
2
72
10
73
11
74
3
0
VERTEX
8
5
10
0
20
0
30
0
70
128
71
3
72
11
73
12
74
4
0
VERTEX
8
5
10
0
20
0
30
0
70
128
71
4
72
12
73
13
74
5
0
VERTEX
8
5
10
0
20
0
30
0
70
128
71
5
72
13
73
14
74
6
0
VERTEX
8
5
10
0
20
0
30
0
70
128
71
6
72
14
73
15
74
7
0
VERTEX
8
5
10
0
20
0
30
0
70
128
71
7
72
15
73
16
74
8
0
VERTEX
8
5
10
0
20
0
30
0
70
128
71
8
72
16
73
9
74
1
0
SEQEND
8
5
0
POLYLINE
66
1
8
5
62
5
70
64
0
VERTEX
8
5
10
0.3678808510
20
-0.3220851421
30
-0.2597203553
70
192
0
VERTEX
8
5
10
0.5202571154
20
0.0647643358
30
-0.1779384017
70
192
0
VERTEX
8
5
10
0.3678808510
20
0.4136766195
30
0.0080750631
70
192
0
VERTEX
8
5
10
0
20
0.5202571750
30
0.1893581450
70
192
0
VERTEX
8
5
10
-0.3678808510
20
0.3220851421
30
0.2597203553
70
192
0
VERTEX
8
5
10
-0.5202571154
20
-0.0647643358
30
0.1779384017
70
192
0
VERTEX
8
5
10
-0.3678808510
20
-0.4136766195
30
-0.0080750631
70
192
0
VERTEX
8
5
10
0
20
-0.5202571750
30
-0.1893581450
70
192
0
VERTEX
8
5
10
-33.8341293335
20
31.8173007965
30
-88.5619354248
70
192
0
VERTEX
8
5
10
-33.6817550659
20
32.2041511536
30
-88.4801559448
70
192
0
VERTEX
8
5
10
-33.8341293335
20
32.5530624390
30
-88.2941436768
70
192
0
VERTEX
8
5
10
-34.2020111084
20
32.6596412659
30
-88.1128540039
70
192
0
VERTEX
8
5
10
-34.5698928833
20
32.4614715576
30
-88.0424957275
70
192
0
VERTEX
8
5
10
-34.7222671509
20
32.0746192932
30
-88.1242752075
70
192
0
VERTEX
8
5
10
-34.5698928833
20
31.7257080078
30
-88.3102874756
70
192
0
VERTEX
8
5
10
-34.2020111084
20
31.6191272736
30
-88.4915771484
70
192
0
VERTEX
8
5
10
0
20
0
30
0
70
128
71
1
72
9
73
10
74
2
0
VERTEX
8
5
10
0
20
0
30
0
70
128
71
2
72
10
73
11
74
3
0
VERTEX
8
5
10
0
20
0
30
0
70
128
71
3
72
11
73
12
74
4
0
VERTEX
8
5
10
0
20
0
30
0
70
128
71
4
72
12
73
13
74
5
0
VERTEX
8
5
10
0
20
0
30
0
70
128
71
5
72
13
73
14
74
6
0
VERTEX
8
5
10
0
20
0
30
0
70
128
71
6
72
14
73
15
74
7
0
VERTEX
8
5
10
0
20
0
30
0
70
128
71
7
72
15
73
16
74
8
0
VERTEX
8
5
10
0
20
0
30
0
70
128
71
8
72
16
73
9
74
1
0
SEQEND
8
5
0
POLYLINE
66
1
8
5
62
5
70
64
0
VERTEX
8
5
10
-33.8341293335
20
31.8173007965
30
-88.5619354248
70
192
0
VERTEX
8
5
10
-33.6817550659
20
32.2041511536
30
-88.4801559448
70
192
0
VERTEX
8
5
10
-33.8341293335
20
32.5530624390
30
-88.2941436768
70
192
0
VERTEX
8
5
10
-34.2020111084
20
32.6596412659
30
-88.1128540039
70
192
0
VERTEX
8
5
10
-34.5698928833
20
32.4614715576
30
-88.0424957275
70
192
0
VERTEX
8
5
10
-34.7222671509
20
32.0746192932
30
-88.1242752075
70
192
0
VERTEX
8
5
10
-34.5698928833
20
31.7257080078
30
-88.3102874756
70
192
0
VERTEX
8
5
10
-34.2020111084
20
31.6191272736
30
-88.4915771484
70
192
0
VERTEX
8
5
10
-66.1914443970
20
45.0986099243
30
-124.4797134399
70
192
0
VERTEX
8
5
10
-66.1293334961
20
45.3003768921
30
-124.4617385864
70
192
0
VERTEX
8
5
10
-66.1914443970
20
45.4664916992
30
-124.3458175659
70
192
0
VERTEX
8
5
10
-66.3413925171
20
45.4996452332
30
-124.1998519897
70
192
0
VERTEX
8
5
10
-66.4913406372
20
45.3804244995
30
-124.1093521118
70
192
0
VERTEX
8
5
10
-66.5534515381
20
45.1786575317
30
-124.1273269653
70
192
0
VERTEX
8
5
10
-66.4913406372
20
45.0125427246
30
-124.2432479858
70
192
0
VERTEX
8
5
10
-66.3413925171
20
44.9793891907
30
-124.3892135620
70
192
0
VERTEX
8
5
10
0
20
0
30
0
70
128
71
1
72
9
73
10
74
2
0
VERTEX
8
5
10
0
20
0
30
0
70
128
71
2
72
10
73
11
74
3
0
VERTEX
8
5
10
0
20
0
30
0
70
128
71
3
72
11
73
12
74
4
0
VERTEX
8
5
10
0
20
0
30
0
70
128
71
4
72
12
73
13
74
5
0
VERTEX
8
5
10
0
20
0
30
0
70
128
71
5
72
13
73
14
74
6
0
VERTEX
8
5
10
0
20
0
30
0
70
128
71
6
72
14
73
15
74
7
0
VERTEX
8
5
10
0
20
0
30
0
70
128
71
7
72
15
73
16
74
8
0
VERTEX
8
5
10
0
20
0
30
0
70
128
71
8
72
16
73
9
74
1
0
SEQEND
8
5
0
POLYLINE
66
1
8
5
62
5
70
64
0
VERTEX
8
5
10
-66.1914443970
20
45.0986099243
30
-124.4797134399
70
192
0
VERTEX
8
5
10
-66.1293334961
20
45.3003768921
30
-124.4617385864
70
192
0
VERTEX
8
5
10
-66.1914443970
20
45.4664916992
30
-124.3458175659
70
192
0
VERTEX
8
5
10
-66.3413925171
20
45.4996452332
30
-124.1998519897
70
192
0
VERTEX
8
5
10
-66.4913406372
20
45.3804244995
30
-124.1093521118
70
192
0
VERTEX
8
5
10
-66.5534515381
20
45.1786575317
30
-124.1273269653
70
192
0
VERTEX
8
5
10
-66.4913406372
20
45.0125427246
30
-124.2432479858
70
192
0
VERTEX
8
5
10
-66.3413925171
20
44.9793891907
30
-124.3892135620
70
192
0
VERTEX
8
5
10
-115.5477905273
20
48.0910682678
30
-132.7014160156
70
192
0
VERTEX
8
5
10
-115.5337066650
20
48.3023147583
30
-132.7095031738
70
192
0
VERTEX
8
5
10
-115.5477905273
20
48.4589500427
30
-132.5675201416
70
192
0
VERTEX
8
5
10
-115.5817794800
20
48.4692039490
30
-132.3586425781
70
192
0
VERTEX
8
5
10
-115.6157684326
20
48.3270835876
30
-132.2052307129
70
192
0
VERTEX
8
5
10
-115.6298522949
20
48.1158370972
30
-132.1971435547
70
192
0
VERTEX
8
5
10
-115.6157684326
20
47.9592018127
30
-132.3391265869
70
192
0
VERTEX
8
5
10
-115.5817794800
20
47.9489479065
30
-132.5480041504
70
192
0
VERTEX
8
5
10
0
20
0
30
0
70
128
71
1
72
9
73
10
74
2
0
VERTEX
8
5
10
0
20
0
30
0
70
128
71
2
72
10
73
11
74
3
0
VERTEX
8
5
10
0
20
0
30
0
70
128
71
3
72
11
73
12
74
4
0
VERTEX
8
5
10
0
20
0
30
0
70
128
71
4
72
12
73
13
74
5
0
VERTEX
8
5
10
0
20
0
30
0
70
128
71
5
72
13
73
14
74
6
0
VERTEX
8
5
10
0
20
0
30
0
70
128
71
6
72
14
73
15
74
7
0
VERTEX
8
5
10
0
20
0
30
0
70
128
71
7
72
15
73
16
74
8
0
VERTEX
8
5
10
0
20
0
30
0
70
128
71
8
72
16
73
9
74
1
0
SEQEND
8
5
0
POLYLINE
66
1
8
5
62
5
70
64
0
VERTEX
8
5
10
0.3678808808
20
-0.4136765897
30
0.0080749597
70
192
0
VERTEX
8
5
10
0.5202571750
20
-0.0647642463
30
-0.1779384613
70
192
0
VERTEX
8
5
10
0.3678808808
20
0.3220852315
30
-0.2597203553
70
192
0
VERTEX
8
5
10
0
20
0.5202571750
30
-0.1893580705
70
192
0
VERTEX
8
5
10
-0.3678808808
20
0.4136765897
30
-0.0080749597
70
192
0
VERTEX
8
5
10
-0.5202571750
20
0.0647642463
30
0.1779384613
70
192
0
VERTEX
8
5
10
-0.3678808808
20
-0.3220852315
30
0.2597203553
70
192
0
VERTEX
8
5
10
0
20
-0.5202571750
30
0.1893580705
70
192
0
VERTEX
8
5
10
-33.8341293335
20
-32.5530471802
30
-88.2941513062
70
192
0
VERTEX
8
5
10
-33.6817550659
20
-32.2041358948
30
-88.4801635742
70
192
0
VERTEX
8
5
10
-33.8341293335
20
-31.8172855377
30
-88.5619430542
70
192
0
VERTEX
8
5
10
-34.2020111084
20
-31.6191120148
30
-88.4915847778
70
192
0
VERTEX
8
5
10
-34.5698928833
20
-31.7256927490
30
-88.3102951050
70
192
0
VERTEX
8
5
10
-34.7222671509
20
-32.0746040344
30
-88.1242828369
70
192
0
VERTEX
8
5
10
-34.5698928833
20
-32.4614562988
30
-88.0425033569
70
192
0
VERTEX
8
5
10
-34.2020111084
20
-32.6596260071
30
-88.1128616333
70
192
0
VERTEX
8
5
10
0
20
0
30
0
70
128
71
1
72
9
73
10
74
2
0
VERTEX
8
5
10
0
20
0
30
0
70
128
71
2
72
10
73
11
74
3
0
VERTEX
8
5
10
0
20
0
30
0
70
128
71
3
72
11
73
12
74
4
0
VERTEX
8
5
10
0
20
0
30
0
70
128
71
4
72
12
73
13
74
5
0
VERTEX
8
5
10
0
20
0
30
0
70
128
71
5
72
13
73
14
74
6
0
VERTEX
8
5
10
0
20
0
30
0
70
128
71
6
72
14
73
15
74
7
0
VERTEX
8
5
10
0
20
0
30
0
70
128
71
7
72
15
73
16
74
8
0
VERTEX
8
5
10
0
20
0
30
0
70
128
71
8
72
16
73
9
74
1
0
SEQEND
8
5
0
POLYLINE
66
1
8
5
62
5
70
64
0
VERTEX
8
5
10
-33.8341293335
20
-32.5530471802
30
-88.2941513062
70
192
0
VERTEX
8
5
10
-33.6817550659
20
-32.2041358948
30
-88.4801635742
70
192
0
VERTEX
8
5
10
-33.8341293335
20
-31.8172855377
30
-88.5619430542
70
192
0
VERTEX
8
5
10
-34.2020111084
20
-31.6191120148
30
-88.4915847778
70
192
0
VERTEX
8
5
10
-34.5698928833
20
-31.7256927490
30
-88.3102951050
70
192
0
VERTEX
8
5
10
-34.7222671509
20
-32.0746040344
30
-88.1242828369
70
192
0
VERTEX
8
5
10
-34.5698928833
20
-32.4614562988
30
-88.0425033569
70
192
0
VERTEX
8
5
10
-34.2020111084
20
-32.6596260071
30
-88.1128616333
70
192
0
VERTEX
8
5
10
-66.1914443970
20
-45.4664726257
30
-124.3458251953
70
192
0
VERTEX
8
5
10
-66.1293334961
20
-45.3003578186
30
-124.4617462158
70
192
0
VERTEX
8
5
10
-66.1914443970
20
-45.0985908508
30
-124.4797210693
70
192
0
VERTEX
8
5
10
-66.3413925171
20
-44.9793701172
30
-124.3892211914
70
192
0
VERTEX
8
5
10
-66.4913406372
20
-45.0125236511
30
-124.2432556152
70
192
0
VERTEX
8
5
10
-66.5534515381
20
-45.1786384583
30
-124.1273345947
70
192
0
VERTEX
8
5
10
-66.4913406372
20
-45.3804054260
30
-124.1093597412
70
192
0
VERTEX
8
5
10
-66.3413925171
20
-45.4996261597
30
-124.1998596191
70
192
0
VERTEX
8
5
10
0
20
0
30
0
70
128
71
1
72
9
73
10
74
2
0
VERTEX
8
5
10
0
20
0
30
0
70
128
71
2
72
10
73
11
74
3
0
VERTEX
8
5
10
0
20
0
30
0
70
128
71
3
72
11
73
12
74
4
0
VERTEX
8
5
10
0
20
0
30
0
70
128
71
4
72
12
73
13
74
5
0
VERTEX
8
5
10
0
20
0
30
0
70
128
71
5
72
13
73
14
74
6
0
VERTEX
8
5
10
0
20
0
30
0
70
128
71
6
72
14
73
15
74
7
0
VERTEX
8
5
10
0
20
0
30
0
70
128
71
7
72
15
73
16
74
8
0
VERTEX
8
5
10
0
20
0
30
0
70
128
71
8
72
16
73
9
74
1
0
SEQEND
8
5
0
POLYLINE
66
1
8
5
62
5
70
64
0
VERTEX
8
5
10
-66.1914443970
20
-45.4664726257
30
-124.3458251953
70
192
0
VERTEX
8
5
10
-66.1293334961
20
-45.3003578186
30
-124.4617462158
70
192
0
VERTEX
8
5
10
-66.1914443970
20
-45.0985908508
30
-124.4797210693
70
192
0
VERTEX
8
5
10
-66.3413925171
20
-44.9793701172
30
-124.3892211914
70
192
0
VERTEX
8
5
10
-66.4913406372
20
-45.0125236511
30
-124.2432556152
70
192
0
VERTEX
8
5
10
-66.5534515381
20
-45.1786384583
30
-124.1273345947
70
192
0
VERTEX
8
5
10
-66.4913406372
20
-45.3804054260
30
-124.1093597412
70
192
0
VERTEX
8
5
10
-66.3413925171
20
-45.4996261597
30
-124.1998596191
70
192
0
VERTEX
8
5
10
-115.5477905273
20
-48.4589271545
30
-132.5675354004
70
192
0
VERTEX
8
5
10
-115.5337066650
20
-48.3022956848
30
-132.7095184326
70
192
0
VERTEX
8
5
10
-115.5477905273
20
-48.0910491943
30
-132.7014312744
70
192
0
VERTEX
8
5
10
-115.5817794800
20
-47.9489288330
30
-132.5480194092
70
192
0
VERTEX
8
5
10
-115.6157684326
20
-47.9591865540
30
-132.3391418457
70
192
0
VERTEX
8
5
10
-115.6298522949
20
-48.1158180237
30
-132.1971588135
70
192
0
VERTEX
8
5
10
-115.6157684326
20
-48.3270645142
30
-132.2052459717
70
192
0
VERTEX
8
5
10
-115.5817794800
20
-48.4691848755
30
-132.3586578369
70
192
0
VERTEX
8
5
10
0
20
0
30
0
70
128
71
1
72
9
73
10
74
2
0
VERTEX
8
5
10
0
20
0
30
0
70
128
71
2
72
10
73
11
74
3
0
VERTEX
8
5
10
0
20
0
30
0
70
128
71
3
72
11
73
12
74
4
0
VERTEX
8
5
10
0
20
0
30
0
70
128
71
4
72
12
73
13
74
5
0
VERTEX
8
5
10
0
20
0
30
0
70
128
71
5
72
13
73
14
74
6
0
VERTEX
8
5
10
0
20
0
30
0
70
128
71
6
72
14
73
15
74
7
0
VERTEX
8
5
10
0
20
0
30
0
70
128
71
7
72
15
73
16
74
8
0
VERTEX
8
5
10
0
20
0
30
0
70
128
71
8
72
16
73
9
74
1
0
SEQEND
8
5
0
POLYLINE
66
1
8
5
62
5
70
64
0
VERTEX
8
5
10
0.2042092979
20
-0.5145515203
30
-0.0080749830
70
192
0
VERTEX
8
5
10
0.4667311311
20
-0.2387969196
30
0.1779385060
70
192
0
VERTEX
8
5
10
0.4558545351
20
0.1768384576
30
0.2597204447
70
192
0
VERTEX
8
5
10
0.1779383421
20
0.4888818562
30
0.1893581599
70
192
0
VERTEX
8
5
10
-0.2042092979
20
0.5145515203
30
0.0080749830
70
192
0
VERTEX
8
5
10
-0.4667311311
20
0.2387969196
30
-0.1779385060
70
192
0
VERTEX
8
5
10
-0.4558545351
20
-0.1768384576
30
-0.2597204447
70
192
0
VERTEX
8
5
10
-0.1779383421
20
-0.4888818562
30
-0.1893581599
70
192
0
VERTEX
8
5
10
43.3359222412
20
17.9888153076
30
-88.3102951050
70
192
0
VERTEX
8
5
10
43.5984458923
20
18.2645702362
30
-88.1242828369
70
192
0
VERTEX
8
5
10
43.5875701904
20
18.6802043915
30
-88.0425033569
70
192
0
VERTEX
8
5
10
43.3096504211
20
18.9922485352
30
-88.1128616333
70
192
0
VERTEX
8
5
10
42.9275054932
20
19.0179176331
30
-88.2941513062
70
192
0
VERTEX
8
5
10
42.6649818420
20
18.7421627045
30
-88.4801635742
70
192
0
VERTEX
8
5
10
42.6758575439
20
18.3265285492
30
-88.5619430542
70
192
0
VERTEX
8
5
10
42.9537773132
20
18.0144844055
30
-88.4915847778
70
192
0
VERTEX
8
5
10
0
20
0
30
0
70
128
71
1
72
9
73
10
74
2
0
VERTEX
8
5
10
0
20
0
30
0
70
128
71
2
72
10
73
11
74
3
0
VERTEX
8
5
10
0
20
0
30
0
70
128
71
3
72
11
73
12
74
4
0
VERTEX
8
5
10
0
20
0
30
0
70
128
71
4
72
12
73
13
74
5
0
VERTEX
8
5
10
0
20
0
30
0
70
128
71
5
72
13
73
14
74
6
0
VERTEX
8
5
10
0
20
0
30
0
70
128
71
6
72
14
73
15
74
7
0
VERTEX
8
5
10
0
20
0
30
0
70
128
71
7
72
15
73
16
74
8
0
VERTEX
8
5
10
0
20
0
30
0
70
128
71
8
72
16
73
9
74
1
0
SEQEND
8
5
0
POLYLINE
66
1
8
5
62
5
70
64
0
VERTEX
8
5
10
43.3359222412
20
17.9888153076
30
-88.3102951050
70
192
0
VERTEX
8
5
10
43.5984458923
20
18.2645702362
30
-88.1242828369
70
192
0
VERTEX
8
5
10
43.5875701904
20
18.6802043915
30
-88.0425033569
70
192
0
VERTEX
8
5
10
43.3096504211
20
18.9922485352
30
-88.1128616333
70
192
0
VERTEX
8
5
10
42.9275054932
20
19.0179176331
30
-88.2941513062
70
192
0
VERTEX
8
5
10
42.6649818420
20
18.7421627045
30
-88.4801635742
70
192
0
VERTEX
8
5
10
42.6758575439
20
18.3265285492
30
-88.5619430542
70
192
0
VERTEX
8
5
10
42.9537773132
20
18.0144844055
30
-88.4915847778
70
192
0
VERTEX
8
5
10
17.5038032532
20
41.6220855713
30
-124.4797286987
70
192
0
VERTEX
8
5
10
17.6311759949
20
41.7904357910
30
-124.4617538452
70
192
0
VERTEX
8
5
10
17.6296272278
20
41.9677810669
30
-124.3458328247
70
192
0
VERTEX
8
5
10
17.5000610352
20
42.0502166748
30
-124.1998672485
70
192
0
VERTEX
8
5
10
17.3183784485
20
41.9894714355
30
-124.1093673706
70
192
0
VERTEX
8
5
10
17.1910057068
20
41.8211212158
30
-124.1273422241
70
192
0
VERTEX
8
5
10
17.1925544739
20
41.6437759399
30
-124.2432632446
70
192
0
VERTEX
8
5
10
17.3221206665
20
41.5613403320
30
-124.3892288208
70
192
0
VERTEX
8
5
10
0
20
0
30
0
70
128
71
1
72
9
73
10
74
2
0
VERTEX
8
5
10
0
20
0
30
0
70
128
71
2
72
10
73
11
74
3
0
VERTEX
8
5
10
0
20
0
30
0
70
128
71
3
72
11
73
12
74
4
0
VERTEX
8
5
10
0
20
0
30
0
70
128
71
4
72
12
73
13
74
5
0
VERTEX
8
5
10
0
20
0
30
0
70
128
71
5
72
13
73
14
74
6
0
VERTEX
8
5
10
0
20
0
30
0
70
128
71
6
72
14
73
15
74
7
0
VERTEX
8
5
10
0
20
0
30
0
70
128
71
7
72
15
73
16
74
8
0
VERTEX
8
5
10
0
20
0
30
0
70
128
71
8
72
16
73
9
74
1
0
SEQEND
8
5
0
POLYLINE
66
1
8
5
62
5
70
64
0
VERTEX
8
5
10
17.5038032532
20
41.6220855713
30
-124.4797286987
70
192
0
VERTEX
8
5
10
17.6311759949
20
41.7904357910
30
-124.4617538452
70
192
0
VERTEX
8
5
10
17.6296272278
20
41.9677810669
30
-124.3458328247
70
192
0
VERTEX
8
5
10
17.5000610352
20
42.0502166748
30
-124.1998672485
70
192
0
VERTEX
8
5
10
17.3183784485
20
41.9894714355
30
-124.1093673706
70
192
0
VERTEX
8
5
10
17.1910057068
20
41.8211212158
30
-124.1273422241
70
192
0
VERTEX
8
5
10
17.1925544739
20
41.6437759399
30
-124.2432632446
70
192
0
VERTEX
8
5
10
17.3221206665
20
41.5613403320
30
-124.3892288208
70
192
0
VERTEX
8
5
10
-29.9476909637
20
55.7572479248
30
-116.3838577271
70
192
0
VERTEX
8
5
10
-29.8886699677
20
55.9605712891
30
-116.3919448853
70
192
0
VERTEX
8
5
10
-29.8218688965
20
56.1029434204
30
-116.2499618530
70
192
0
VERTEX
8
5
10
-29.7864208221
20
56.1009559631
30
-116.0410842896
70
192
0
VERTEX
8
5
10
-29.8030872345
20
55.9557800293
30
-115.8876724243
70
192
0
VERTEX
8
5
10
-29.8621082306
20
55.7524566650
30
-115.8795852661
70
192
0
VERTEX
8
5
10
-29.9289093018
20
55.6100845337
30
-116.0215682983
70
192
0
VERTEX
8
5
10
-29.9643573761
20
55.6120719910
30
-116.2304458618
70
192
0
VERTEX
8
5
10
0
20
0
30
0
70
128
71
1
72
9
73
10
74
2
0
VERTEX
8
5
10
0
20
0
30
0
70
128
71
2
72
10
73
11
74
3
0
VERTEX
8
5
10
0
20
0
30
0
70
128
71
3
72
11
73
12
74
4
0
VERTEX
8
5
10
0
20
0
30
0
70
128
71
4
72
12
73
13
74
5
0
VERTEX
8
5
10
0
20
0
30
0
70
128
71
5
72
13
73
14
74
6
0
VERTEX
8
5
10
0
20
0
30
0
70
128
71
6
72
14
73
15
74
7
0
VERTEX
8
5
10
0
20
0
30
0
70
128
71
7
72
15
73
16
74
8
0
VERTEX
8
5
10
0
20
0
30
0
70
128
71
8
72
16
73
9
74
1
0
SEQEND
8
5
0
POLYLINE
66
1
8
5
62
5
70
64
0
VERTEX
8
5
10
0.4558545947
20
-0.1768384278
30
0.2597203851
70
192
0
VERTEX
8
5
10
0.4667311013
20
0.2387969643
30
0.1779384762
70
192
0
VERTEX
8
5
10
0.2042091787
20
0.5145515800
30
-0.0080749597
70
192
0
VERTEX
8
5
10
-0.1779384762
20
0.4888818562
30
-0.1893580854
70
192
0
VERTEX
8
5
10
-0.4558545947
20
0.1768384278
30
-0.2597203851
70
192
0
VERTEX
8
5
10
-0.4667311013
20
-0.2387969643
30
-0.1779384762
70
192
0
VERTEX
8
5
10
-0.2042091787
20
-0.5145515800
30
0.0080749597
70
192
0
VERTEX
8
5
10
0.1779384762
20
-0.4888818562
30
0.1893580854
70
192
0
VERTEX
8
5
10
43.5875511169
20
-18.6801872253
30
-88.0425033569
70
192
0
VERTEX
8
5
10
43.5984268188
20
-18.2645530701
30
-88.1242828369
70
192
0
VERTEX
8
5
10
43.3359031677
20
-17.9887981415
30
-88.3102951050
70
192
0
VERTEX
8
5
10
42.9537544250
20
-18.0144672394
30
-88.4915847778
70
192
0
VERTEX
8
5
10
42.6758384705
20
-18.3265113831
30
-88.5619430542
70
192
0
VERTEX
8
5
10
42.6649627686
20
-18.7421455383
30
-88.4801635742
70
192
0
VERTEX
8
5
10
42.9274864197
20
-19.0179004669
30
-88.2941513062
70
192
0
VERTEX
8
5
10
43.3096351624
20
-18.9922313690
30
-88.1128616333
70
192
0
VERTEX
8
5
10
0
20
0
30
0
70
128
71
1
72
9
73
10
74
2
0
VERTEX
8
5
10
0
20
0
30
0
70
128
71
2
72
10
73
11
74
3
0
VERTEX
8
5
10
0
20
0
30
0
70
128
71
3
72
11
73
12
74
4
0
VERTEX
8
5
10
0
20
0
30
0
70
128
71
4
72
12
73
13
74
5
0
VERTEX
8
5
10
0
20
0
30
0
70
128
71
5
72
13
73
14
74
6
0
VERTEX
8
5
10
0
20
0
30
0
70
128
71
6
72
14
73
15
74
7
0
VERTEX
8
5
10
0
20
0
30
0
70
128
71
7
72
15
73
16
74
8
0
VERTEX
8
5
10
0
20
0
30
0
70
128
71
8
72
16
73
9
74
1
0
SEQEND
8
5
0
POLYLINE
66
1
8
5
62
5
70
64
0
VERTEX
8
5
10
43.5875511169
20
-18.6801872253
30
-88.0425033569
70
192
0
VERTEX
8
5
10
43.5984268188
20
-18.2645530701
30
-88.1242828369
70
192
0
VERTEX
8
5
10
43.3359031677
20
-17.9887981415
30
-88.3102951050
70
192
0
VERTEX
8
5
10
42.9537544250
20
-18.0144672394
30
-88.4915847778
70
192
0
VERTEX
8
5
10
42.6758384705
20
-18.3265113831
30
-88.5619430542
70
192
0
VERTEX
8
5
10
42.6649627686
20
-18.7421455383
30
-88.4801635742
70
192
0
VERTEX
8
5
10
42.9274864197
20
-19.0179004669
30
-88.2941513062
70
192
0
VERTEX
8
5
10
43.3096351624
20
-18.9922313690
30
-88.1128616333
70
192
0
VERTEX
8
5
10
17.6296043396
20
-41.9677581787
30
-124.3458328247
70
192
0
VERTEX
8
5
10
17.6311531067
20
-41.7904205322
30
-124.4617538452
70
192
0
VERTEX
8
5
10
17.5037803650
20
-41.6220626831
30
-124.4797286987
70
192
0
VERTEX
8
5
10
17.3220977783
20
-41.5613174438
30
-124.3892288208
70
192
0
VERTEX
8
5
10
17.1925315857
20
-41.6437606812
30
-124.2432632446
70
192
0
VERTEX
8
5
10
17.1909828186
20
-41.8210983276
30
-124.1273422241
70
192
0
VERTEX
8
5
10
17.3183555603
20
-41.9894561768
30
-124.1093673706
70
192
0
VERTEX
8
5
10
17.5000381470
20
-42.0502014160
30
-124.1998672485
70
192
0
VERTEX
8
5
10
0
20
0
30
0
70
128
71
1
72
9
73
10
74
2
0
VERTEX
8
5
10
0
20
0
30
0
70
128
71
2
72
10
73
11
74
3
0
VERTEX
8
5
10
0
20
0
30
0
70
128
71
3
72
11
73
12
74
4
0
VERTEX
8
5
10
0
20
0
30
0
70
128
71
4
72
12
73
13
74
5
0
VERTEX
8
5
10
0
20
0
30
0
70
128
71
5
72
13
73
14
74
6
0
VERTEX
8
5
10
0
20
0
30
0
70
128
71
6
72
14
73
15
74
7
0
VERTEX
8
5
10
0
20
0
30
0
70
128
71
7
72
15
73
16
74
8
0
VERTEX
8
5
10
0
20
0
30
0
70
128
71
8
72
16
73
9
74
1
0
SEQEND
8
5
0
POLYLINE
66
1
8
5
62
5
70
64
0
VERTEX
8
5
10
17.6296043396
20
-41.9677581787
30
-124.3458328247
70
192
0
VERTEX
8
5
10
17.6311531067
20
-41.7904205322
30
-124.4617538452
70
192
0
VERTEX
8
5
10
17.5037803650
20
-41.6220626831
30
-124.4797286987
70
192
0
VERTEX
8
5
10
17.3220977783
20
-41.5613174438
30
-124.3892288208
70
192
0
VERTEX
8
5
10
17.1925315857
20
-41.6437606812
30
-124.2432632446
70
192
0
VERTEX
8
5
10
17.1909828186
20
-41.8210983276
30
-124.1273422241
70
192
0
VERTEX
8
5
10
17.3183555603
20
-41.9894561768
30
-124.1093673706
70
192
0
VERTEX
8
5
10
17.5000381470
20
-42.0502014160
30
-124.1998672485
70
192
0
VERTEX
8
5
10
-29.8218879700
20
-56.1029243469
30
-116.2499618530
70
192
0
VERTEX
8
5
10
-29.8886890411
20
-55.9605522156
30
-116.3919448853
70
192
0
VERTEX
8
5
10
-29.9477100372
20
-55.7572288513
30
-116.3838577271
70
192
0
VERTEX
8
5
10
-29.9643764496
20
-55.6120529175
30
-116.2304458618
70
192
0
VERTEX
8
5
10
-29.9289283752
20
-55.6100654602
30
-116.0215682983
70
192
0
VERTEX
8
5
10
-29.8621273041
20
-55.7524375916
30
-115.8795852661
70
192
0
VERTEX
8
5
10
-29.8031063080
20
-55.9557609558
30
-115.8876724243
70
192
0
VERTEX
8
5
10
-29.7864398956
20
-56.1009368896
30
-116.0410842896
70
192
0
VERTEX
8
5
10
0
20
0
30
0
70
128
71
1
72
9
73
10
74
2
0
VERTEX
8
5
10
0
20
0
30
0
70
128
71
2
72
10
73
11
74
3
0
VERTEX
8
5
10
0
20
0
30
0
70
128
71
3
72
11
73
12
74
4
0
VERTEX
8
5
10
0
20
0
30
0
70
128
71
4
72
12
73
13
74
5
0
VERTEX
8
5
10
0
20
0
30
0
70
128
71
5
72
13
73
14
74
6
0
VERTEX
8
5
10
0
20
0
30
0
70
128
71
6
72
14
73
15
74
7
0
VERTEX
8
5
10
0
20
0
30
0
70
128
71
7
72
15
73
16
74
8
0
VERTEX
8
5
10
0
20
0
30
0
70
128
71
8
72
16
73
9
74
1
0
SEQEND
8
5
0
POLYLINE
66
1
8
6
62
6
70
64
0
VERTEX
8
6
10
0.0006695279
20
25.4558429718
30
-25.4558429718
70
192
0
VERTEX
8
6
10
0.0009468464
20
0
30
-35.9996566772
70
192
0
VERTEX
8
6
10
0.0006695279
20
-25.4558429718
30
-25.4558429718
70
192
0
VERTEX
8
6
10
0
20
-35.9996566772
30
0
70
192
0
VERTEX
8
6
10
-0.0006695279
20
-25.4558429718
30
25.4558429718
70
192
0
VERTEX
8
6
10
-0.0009468464
20
0
30
35.9996566772
70
192
0
VERTEX
8
6
10
-0.0006695279
20
25.4558429718
30
25.4558429718
70
192
0
VERTEX
8
6
10
0
20
35.9996566772
30
0
70
192
0
VERTEX
8
6
10
90.0006713867
20
25.4558429718
30
-25.4534759521
70
192
0
VERTEX
8
6
10
90.0009460449
20
0
30
-35.9972877502
70
192
0
VERTEX
8
6
10
90.0006713867
20
-25.4558429718
30
-25.4534759521
70
192
0
VERTEX
8
6
10
90
20
-35.9996566772
30
0.0023671386
70
192
0
VERTEX
8
6
10
89.9993286133
20
-25.4558429718
30
25.4582099915
70
192
0
VERTEX
8
6
10
89.9990539551
20
0
30
36.0020256042
70
192
0
VERTEX
8
6
10
89.9993286133
20
25.4558429718
30
25.4582099915
70
192
0
VERTEX
8
6
10
90
20
35.9996566772
30
0.0023671386
70
192
0
VERTEX
8
6
10
0
20
0
30
0
70
128
71
1
72
9
73
10
74
2
0
VERTEX
8
6
10
0
20
0
30
0
70
128
71
2
72
10
73
11
74
3
0
VERTEX
8
6
10
0
20
0
30
0
70
128
71
3
72
11
73
12
74
4
0
VERTEX
8
6
10
0
20
0
30
0
70
128
71
4
72
12
73
13
74
5
0
VERTEX
8
6
10
0
20
0
30
0
70
128
71
5
72
13
73
14
74
6
0
VERTEX
8
6
10
0
20
0
30
0
70
128
71
6
72
14
73
15
74
7
0
VERTEX
8
6
10
0
20
0
30
0
70
128
71
7
72
15
73
16
74
8
0
VERTEX
8
6
10
0
20
0
30
0
70
128
71
8
72
16
73
9
74
1
0
SEQEND
8
6
0
POLYLINE
66
1
8
7
62
7
70
64
0
VERTEX
8
7
10
75.6906509399
20
0.0002718978
30
-10.3076267242
70
192
0
VERTEX
8
7
10
86.0003814697
20
0
30
-14.5775985718
70
192
0
VERTEX
8
7
10
96.3098907471
20
-0.0002718978
30
-10.3070831299
70
192
0
VERTEX
8
7
10
100.5798568726
20
-0.0003845178
30
0.0026459920
70
192
0
VERTEX
8
7
10
96.3093490601
20
-0.0002718978
30
10.3121500015
70
192
0
VERTEX
8
7
10
85.9996185303
20
0
30
14.5821228027
70
192
0
VERTEX
8
7
10
75.6901092529
20
0.0002718978
30
10.3116073608
70
192
0
VERTEX
8
7
10
71.4201431274
20
0.0003845178
30
0.0018778730
70
192
0
VERTEX
8
7
10
75.6916122437
20
36.4502716064
30
-10.3076267242
70
192
0
VERTEX
8
7
10
86.0013427734
20
36.4500007629
30
-14.5775985718
70
192
0
VERTEX
8
7
10
96.3108520508
20
36.4497299194
30
-10.3070831299
70
192
0
VERTEX
8
7
10
100.5808181763
20
36.4496154785
30
0.0026460171
70
192
0
VERTEX
8
7
10
96.3103103638
20
36.4497299194
30
10.3121500015
70
192
0
VERTEX
8
7
10
86.0005798340
20
36.4500007629
30
14.5821228027
70
192
0
VERTEX
8
7
10
75.6910705566
20
36.4502716064
30
10.3116073608
70
192
0
VERTEX
8
7
10
71.4211044312
20
36.4503860474
30
0.0018778981
70
192
0
VERTEX
8
7
10
0
20
0
30
0
70
128
71
1
72
9
73
10
74
2
0
VERTEX
8
7
10
0
20
0
30
0
70
128
71
2
72
10
73
11
74
3
0
VERTEX
8
7
10
0
20
0
30
0
70
128
71
3
72
11
73
12
74
4
0
VERTEX
8
7
10
0
20
0
30
0
70
128
71
4
72
12
73
13
74
5
0
VERTEX
8
7
10
0
20
0
30
0
70
128
71
5
72
13
73
14
74
6
0
VERTEX
8
7
10
0
20
0
30
0
70
128
71
6
72
14
73
15
74
7
0
VERTEX
8
7
10
0
20
0
30
0
70
128
71
7
72
15
73
16
74
8
0
VERTEX
8
7
10
0
20
0
30
0
70
128
71
8
72
16
73
9
74
1
0
SEQEND
8
7
0
POLYLINE
66
1
8
7
62
7
70
64
0
VERTEX
8
7
10
96.3098907471
20
0.0002718978
30
-10.3070831299
70
192
0
VERTEX
8
7
10
86.0003814697
20
0
30
-14.5775985718
70
192
0
VERTEX
8
7
10
75.6906509399
20
-0.0002718978
30
-10.3076267242
70
192
0
VERTEX
8
7
10
71.4201431274
20
-0.0003845178
30
0.0018778730
70
192
0
VERTEX
8
7
10
75.6901092529
20
-0.0002718978
30
10.3116073608
70
192
0
VERTEX
8
7
10
85.9996185303
20
0
30
14.5821228027
70
192
0
VERTEX
8
7
10
96.3093490601
20
0.0002718978
30
10.3121500015
70
192
0
VERTEX
8
7
10
100.5798568726
20
0.0003845178
30
0.0026459920
70
192
0
VERTEX
8
7
10
96.3108520508
20
-36.4497299194
30
-10.3070831299
70
192
0
VERTEX
8
7
10
86.0013427734
20
-36.4500007629
30
-14.5775985718
70
192
0
VERTEX
8
7
10
75.6916122437
20
-36.4502716064
30
-10.3076267242
70
192
0
VERTEX
8
7
10
71.4211044312
20
-36.4503860474
30
0.0018778981
70
192
0
VERTEX
8
7
10
75.6910705566
20
-36.4502716064
30
10.3116073608
70
192
0
VERTEX
8
7
10
86.0005798340
20
-36.4500007629
30
14.5821228027
70
192
0
VERTEX
8
7
10
96.3103103638
20
-36.4497299194
30
10.3121500015
70
192
0
VERTEX
8
7
10
100.5808181763
20
-36.4496154785
30
0.0026460171
70
192
0
VERTEX
8
7
10
0
20
0
30
0
70
128
71
1
72
9
73
10
74
2
0
VERTEX
8
7
10
0
20
0
30
0
70
128
71
2
72
10
73
11
74
3
0
VERTEX
8
7
10
0
20
0
30
0
70
128
71
3
72
11
73
12
74
4
0
VERTEX
8
7
10
0
20
0
30
0
70
128
71
4
72
12
73
13
74
5
0
VERTEX
8
7
10
0
20
0
30
0
70
128
71
5
72
13
73
14
74
6
0
VERTEX
8
7
10
0
20
0
30
0
70
128
71
6
72
14
73
15
74
7
0
VERTEX
8
7
10
0
20
0
30
0
70
128
71
7
72
15
73
16
74
8
0
VERTEX
8
7
10
0
20
0
30
0
70
128
71
8
72
16
73
9
74
1
0
SEQEND
8
7
0
POLYLINE
66
1
8
12
62
12
70
64
0
VERTEX
8
12
10
90.0000762939
20
2.9233260155
30
-2.9209587574
70
192
0
VERTEX
8
12
10
90.0001068115
20
0
30
-4.1318001747
70
192
0
VERTEX
8
12
10
90.0000762939
20
-2.9233260155
30
-2.9209587574
70
192
0
VERTEX
8
12
10
90
20
-4.1341676712
30
0.0023671386
70
192
0
VERTEX
8
12
10
89.9999237061
20
-2.9233260155
30
2.9256930351
70
192
0
VERTEX
8
12
10
89.9998931885
20
0
30
4.1365346909
70
192
0
VERTEX
8
12
10
89.9999237061
20
2.9233260155
30
2.9256930351
70
192
0
VERTEX
8
12
10
90
20
4.1341676712
30
0.0023671386
70
192
0
VERTEX
8
12
10
133.0467987061
20
2.9233260155
30
-2.9198265076
70
192
0
VERTEX
8
12
10
133.0468292236
20
0
30
-4.1306681633
70
192
0
VERTEX
8
12
10
133.0467987061
20
-2.9233260155
30
-2.9198265076
70
192
0
VERTEX
8
12
10
133.0467224121
20
-4.1341676712
30
0.0034993337
70
192
0
VERTEX
8
12
10
133.0466461182
20
-2.9233260155
30
2.9268252850
70
192
0
VERTEX
8
12
10
133.0466156006
20
0
30
4.1376667023
70
192
0
VERTEX
8
12
10
133.0466461182
20
2.9233260155
30
2.9268252850
70
192
0
VERTEX
8
12
10
133.0467224121
20
4.1341676712
30
0.0034993337
70
192
0
VERTEX
8
12
10
0
20
0
30
0
70
128
71
1
72
9
73
10
74
2
0
VERTEX
8
12
10
0
20
0
30
0
70
128
71
2
72
10
73
11
74
3
0
VERTEX
8
12
10
0
20
0
30
0
70
128
71
3
72
11
73
12
74
4
0
VERTEX
8
12
10
0
20
0
30
0
70
128
71
4
72
12
73
13
74
5
0
VERTEX
8
12
10
0
20
0
30
0
70
128
71
5
72
13
73
14
74
6
0
VERTEX
8
12
10
0
20
0
30
0
70
128
71
6
72
14
73
15
74
7
0
VERTEX
8
12
10
0
20
0
30
0
70
128
71
7
72
15
73
16
74
8
0
VERTEX
8
12
10
0
20
0
30
0
70
128
71
8
72
16
73
9
74
1
0
SEQEND
8
12
0
POLYLINE
66
1
8
12
62
12
70
64
0
VERTEX
8
12
10
133.0467987061
20
2.9233260155
30
-2.9198265076
70
192
0
VERTEX
8
12
10
133.0468292236
20
0
30
-4.1306681633
70
192
0
VERTEX
8
12
10
133.0467987061
20
-2.9233260155
30
-2.9198265076
70
192
0
VERTEX
8
12
10
133.0467224121
20
-4.1341676712
30
0.0034993337
70
192
0
VERTEX
8
12
10
133.0466461182
20
-2.9233260155
30
2.9268252850
70
192
0
VERTEX
8
12
10
133.0466156006
20
0
30
4.1376667023
70
192
0
VERTEX
8
12
10
133.0466461182
20
2.9233260155
30
2.9268252850
70
192
0
VERTEX
8
12
10
133.0467224121
20
4.1341676712
30
0.0034993337
70
192
0
VERTEX
8
12
10
167.9146270752
20
2.3678936958
30
-2.3634772301
70
192
0
VERTEX
8
12
10
167.9146575928
20
0
30
-3.3442587852
70
192
0
VERTEX
8
12
10
167.9146270752
20
-2.3678936958
30
-2.3634772301
70
192
0
VERTEX
8
12
10
167.9145660400
20
-3.3486752510
30
0.0044164117
70
192
0
VERTEX
8
12
10
167.9145050049
20
-2.3678936958
30
2.3723101616
70
192
0
VERTEX
8
12
10
167.9144744873
20
0
30
3.3530917168
70
192
0
VERTEX
8
12
10
167.9145050049
20
2.3678936958
30
2.3723101616
70
192
0
VERTEX
8
12
10
167.9145660400
20
3.3486752510
30
0.0044164117
70
192
0
VERTEX
8
12
10
0
20
0
30
0
70
128
71
1
72
9
73
10
74
2
0
VERTEX
8
12
10
0
20
0
30
0
70
128
71
2
72
10
73
11
74
3
0
VERTEX
8
12
10
0
20
0
30
0
70
128
71
3
72
11
73
12
74
4
0
VERTEX
8
12
10
0
20
0
30
0
70
128
71
4
72
12
73
13
74
5
0
VERTEX
8
12
10
0
20
0
30
0
70
128
71
5
72
13
73
14
74
6
0
VERTEX
8
12
10
0
20
0
30
0
70
128
71
6
72
14
73
15
74
7
0
VERTEX
8
12
10
0
20
0
30
0
70
128
71
7
72
15
73
16
74
8
0
VERTEX
8
12
10
0
20
0
30
0
70
128
71
8
72
16
73
9
74
1
0
SEQEND
8
12
0
POLYLINE
66
1
8
12
62
12
70
64
0
VERTEX
8
12
10
167.9146270752
20
2.3678936958
30
-2.3634772301
70
192
0
VERTEX
8
12
10
167.9146575928
20
0
30
-3.3442587852
70
192
0
VERTEX
8
12
10
167.9146270752
20
-2.3678936958
30
-2.3634772301
70
192
0
VERTEX
8
12
10
167.9145660400
20
-3.3486752510
30
0.0044164117
70
192
0
VERTEX
8
12
10
167.9145050049
20
-2.3678936958
30
2.3723101616
70
192
0
VERTEX
8
12
10
167.9144744873
20
0
30
3.3530917168
70
192
0
VERTEX
8
12
10
167.9145050049
20
2.3678936958
30
2.3723101616
70
192
0
VERTEX
8
12
10
167.9145660400
20
3.3486752510
30
0.0044164117
70
192
0
VERTEX
8
12
10
193.7985687256
20
1.9179940224
30
-11.4568872452
70
192
0
VERTEX
8
12
10
193.5268707275
20
0
30
-12.2034168243
70
192
0
VERTEX
8
12
10
193.7985687256
20
-1.9179940224
30
-11.4568872452
70
192
0
VERTEX
8
12
10
194.4545135498
20
-2.7124271393
30
-9.6545448303
70
192
0
VERTEX
8
12
10
195.1104583740
20
-1.9179940224
30
-7.8522028923
70
192
0
VERTEX
8
12
10
195.3821563721
20
0
30
-7.1056728363
70
192
0
VERTEX
8
12
10
195.1104583740
20
1.9179940224
30
-7.8522028923
70
192
0
VERTEX
8
12
10
194.4545135498
20
2.7124271393
30
-9.6545448303
70
192
0
VERTEX
8
12
10
0
20
0
30
0
70
128
71
1
72
9
73
10
74
2
0
VERTEX
8
12
10
0
20
0
30
0
70
128
71
2
72
10
73
11
74
3
0
VERTEX
8
12
10
0
20
0
30
0
70
128
71
3
72
11
73
12
74
4
0
VERTEX
8
12
10
0
20
0
30
0
70
128
71
4
72
12
73
13
74
5
0
VERTEX
8
12
10
0
20
0
30
0
70
128
71
5
72
13
73
14
74
6
0
VERTEX
8
12
10
0
20
0
30
0
70
128
71
6
72
14
73
15
74
7
0
VERTEX
8
12
10
0
20
0
30
0
70
128
71
7
72
15
73
16
74
8
0
VERTEX
8
12
10
0
20
0
30
0
70
128
71
8
72
16
73
9
74
1
0
SEQEND
8
12
0
POLYLINE
66
1
8
12
62
12
70
64
0
VERTEX
8
12
10
193.7985687256
20
1.9179940224
30
-11.4568872452
70
192
0
VERTEX
8
12
10
193.5268707275
20
0
30
-12.2034168243
70
192
0
VERTEX
8
12
10
193.7985687256
20
-1.9179940224
30
-11.4568872452
70
192
0
VERTEX
8
12
10
194.4545135498
20
-2.7124271393
30
-9.6545448303
70
192
0
VERTEX
8
12
10
195.1104583740
20
-1.9179940224
30
-7.8522028923
70
192
0
VERTEX
8
12
10
195.3821563721
20
0
30
-7.1056728363
70
192
0
VERTEX
8
12
10
195.1104583740
20
1.9179940224
30
-7.8522028923
70
192
0
VERTEX
8
12
10
194.4545135498
20
2.7124271393
30
-9.6545448303
70
192
0
VERTEX
8
12
10
204.5480194092
20
1.5535751581
30
-30.2429504395
70
192
0
VERTEX
8
12
10
203.9907531738
20
0
30
-30.5647106171
70
192
0
VERTEX
8
12
10
204.5480194092
20
-1.5535751581
30
-30.2429504395
70
192
0
VERTEX
8
12
10
205.8934326172
20
-2.1970658302
30
-29.4661273956
70
192
0
VERTEX
8
12
10
207.2388458252
20
-1.5535751581
30
-28.6893043518
70
192
0
VERTEX
8
12
10
207.7961120605
20
0
30
-28.3675441742
70
192
0
VERTEX
8
12
10
207.2388458252
20
1.5535751581
30
-28.6893043518
70
192
0
VERTEX
8
12
10
205.8934326172
20
2.1970658302
30
-29.4661273956
70
192
0
VERTEX
8
12
10
0
20
0
30
0
70
128
71
1
72
9
73
10
74
2
0
VERTEX
8
12
10
0
20
0
30
0
70
128
71
2
72
10
73
11
74
3
0
VERTEX
8
12
10
0
20
0
30
0
70
128
71
3
72
11
73
12
74
4
0
VERTEX
8
12
10
0
20
0
30
0
70
128
71
4
72
12
73
13
74
5
0
VERTEX
8
12
10
0
20
0
30
0
70
128
71
5
72
13
73
14
74
6
0
VERTEX
8
12
10
0
20
0
30
0
70
128
71
6
72
14
73
15
74
7
0
VERTEX
8
12
10
0
20
0
30
0
70
128
71
7
72
15
73
16
74
8
0
VERTEX
8
12
10
0
20
0
30
0
70
128
71
8
72
16
73
9
74
1
0
SEQEND
8
12
0
POLYLINE
66
1
8
12
62
12
70
64
0
VERTEX
8
12
10
204.5480194092
20
1.5535751581
30
-30.2429504395
70
192
0
VERTEX
8
12
10
203.9907531738
20
0
30
-30.5647106171
70
192
0
VERTEX
8
12
10
204.5480194092
20
-1.5535751581
30
-30.2429504395
70
192
0
VERTEX
8
12
10
205.8934326172
20
-2.1970658302
30
-29.4661273956
70
192
0
VERTEX
8
12
10
207.2388458252
20
-1.5535751581
30
-28.6893043518
70
192
0
VERTEX
8
12
10
207.7961120605
20
0
30
-28.3675441742
70
192
0
VERTEX
8
12
10
207.2388458252
20
1.5535751581
30
-28.6893043518
70
192
0
VERTEX
8
12
10
205.8934326172
20
2.1970658302
30
-29.4661273956
70
192
0
VERTEX
8
12
10
201.4368896484
20
1.2583957911
30
-47.4964141846
70
192
0
VERTEX
8
12
10
200.9235839844
20
0
30
-47.4059143066
70
192
0
VERTEX
8
12
10
201.4368896484
20
-1.2583957911
30
-47.4964141846
70
192
0
VERTEX
8
12
10
202.6761779785
20
-1.7796233892
30
-47.7148971558
70
192
0
VERTEX
8
12
10
203.9154663086
20
-1.2583957911
30
-47.9333801270
70
192
0
VERTEX
8
12
10
204.4287719727
20
0
30
-48.0238800049
70
192
0
VERTEX
8
12
10
203.9154663086
20
1.2583957911
30
-47.9333801270
70
192
0
VERTEX
8
12
10
202.6761779785
20
1.7796233892
30
-47.7148971558
70
192
0
VERTEX
8
12
10
0
20
0
30
0
70
128
71
1
72
9
73
10
74
2
0
VERTEX
8
12
10
0
20
0
30
0
70
128
71
2
72
10
73
11
74
3
0
VERTEX
8
12
10
0
20
0
30
0
70
128
71
3
72
11
73
12
74
4
0
VERTEX
8
12
10
0
20
0
30
0
70
128
71
4
72
12
73
13
74
5
0
VERTEX
8
12
10
0
20
0
30
0
70
128
71
5
72
13
73
14
74
6
0
VERTEX
8
12
10
0
20
0
30
0
70
128
71
6
72
14
73
15
74
7
0
VERTEX
8
12
10
0
20
0
30
0
70
128
71
7
72
15
73
16
74
8
0
VERTEX
8
12
10
0
20
0
30
0
70
128
71
8
72
16
73
9
74
1
0
SEQEND
8
12
0
POLYLINE
66
1
8
12
62
12
70
64
0
VERTEX
8
12
10
201.4368896484
20
1.2583957911
30
-47.4964141846
70
192
0
VERTEX
8
12
10
200.9235839844
20
0
30
-47.4059143066
70
192
0
VERTEX
8
12
10
201.4368896484
20
-1.2583957911
30
-47.4964141846
70
192
0
VERTEX
8
12
10
202.6761779785
20
-1.7796233892
30
-47.7148971558
70
192
0
VERTEX
8
12
10
203.9154663086
20
-1.2583957911
30
-47.9333801270
70
192
0
VERTEX
8
12
10
204.4287719727
20
0
30
-48.0238800049
70
192
0
VERTEX
8
12
10
203.9154663086
20
1.2583957911
30
-47.9333801270
70
192
0
VERTEX
8
12
10
202.6761779785
20
1.7796233892
30
-47.7148971558
70
192
0
VERTEX
8
12
10
190.5233001709
20
1.0193008184
30
-56.5822868347
70
192
0
VERTEX
8
12
10
190.2519073486
20
0
30
-56.2588729858
70
192
0
VERTEX
8
12
10
190.5233001709
20
-1.0193008184
30
-56.5822868347
70
192
0
VERTEX
8
12
10
191.1785125732
20
-1.4414952993
30
-57.3630981445
70
192
0
VERTEX
8
12
10
191.8337249756
20
-1.0193008184
30
-58.1439094543
70
192
0
VERTEX
8
12
10
192.1051177979
20
0
30
-58.4673233032
70
192
0
VERTEX
8
12
10
191.8337249756
20
1.0193008184
30
-58.1439094543
70
192
0
VERTEX
8
12
10
191.1785125732
20
1.4414952993
30
-57.3630981445
70
192
0
VERTEX
8
12
10
0
20
0
30
0
70
128
71
1
72
9
73
10
74
2
0
VERTEX
8
12
10
0
20
0
30
0
70
128
71
2
72
10
73
11
74
3
0
VERTEX
8
12
10
0
20
0
30
0
70
128
71
3
72
11
73
12
74
4
0
VERTEX
8
12
10
0
20
0
30
0
70
128
71
4
72
12
73
13
74
5
0
VERTEX
8
12
10
0
20
0
30
0
70
128
71
5
72
13
73
14
74
6
0
VERTEX
8
12
10
0
20
0
30
0
70
128
71
6
72
14
73
15
74
7
0
VERTEX
8
12
10
0
20
0
30
0
70
128
71
7
72
15
73
16
74
8
0
VERTEX
8
12
10
0
20
0
30
0
70
128
71
8
72
16
73
9
74
1
0
SEQEND
8
12
0
POLYLINE
66
1
8
12
62
12
70
64
0
VERTEX
8
12
10
190.5233001709
20
1.0193008184
30
-56.5822868347
70
192
0
VERTEX
8
12
10
190.2519073486
20
0
30
-56.2588729858
70
192
0
VERTEX
8
12
10
190.5233001709
20
-1.0193008184
30
-56.5822868347
70
192
0
VERTEX
8
12
10
191.1785125732
20
-1.4414952993
30
-57.3630981445
70
192
0
VERTEX
8
12
10
191.8337249756
20
-1.0193008184
30
-58.1439094543
70
192
0
VERTEX
8
12
10
192.1051177979
20
0
30
-58.4673233032
70
192
0
VERTEX
8
12
10
191.8337249756
20
1.0193008184
30
-58.1439094543
70
192
0
VERTEX
8
12
10
191.1785125732
20
1.4414952993
30
-57.3630981445
70
192
0
VERTEX
8
12
10
179.0208282471
20
0.8256337643
30
-56.5377845764
70
192
0
VERTEX
8
12
10
179.0208129883
20
0
30
-56.1958084106
70
192
0
VERTEX
8
12
10
179.0208282471
20
-0.8256337643
30
-56.5377845764
70
192
0
VERTEX
8
12
10
179.0208435059
20
-1.1676112413
30
-57.3634185791
70
192
0
VERTEX
8
12
10
179.0208587646
20
-0.8256337643
30
-58.1890525818
70
192
0
VERTEX
8
12
10
179.0208740234
20
0
30
-58.5310287476
70
192
0
VERTEX
8
12
10
179.0208587646
20
0.8256337643
30
-58.1890525818
70
192
0
VERTEX
8
12
10
179.0208435059
20
1.1676112413
30
-57.3634185791
70
192
0
VERTEX
8
12
10
0
20
0
30
0
70
128
71
1
72
9
73
10
74
2
0
VERTEX
8
12
10
0
20
0
30
0
70
128
71
2
72
10
73
11
74
3
0
VERTEX
8
12
10
0
20
0
30
0
70
128
71
3
72
11
73
12
74
4
0
VERTEX
8
12
10
0
20
0
30
0
70
128
71
4
72
12
73
13
74
5
0
VERTEX
8
12
10
0
20
0
30
0
70
128
71
5
72
13
73
14
74
6
0
VERTEX
8
12
10
0
20
0
30
0
70
128
71
6
72
14
73
15
74
7
0
VERTEX
8
12
10
0
20
0
30
0
70
128
71
7
72
15
73
16
74
8
0
VERTEX
8
12
10
0
20
0
30
0
70
128
71
8
72
16
73
9
74
1
0
SEQEND
8
12
0
POLYLINE
66
1
8
12
62
12
70
64
0
VERTEX
8
12
10
179.0208282471
20
0.8256337643
30
-56.5377845764
70
192
0
VERTEX
8
12
10
179.0208129883
20
0
30
-56.1958084106
70
192
0
VERTEX
8
12
10
179.0208282471
20
-0.8256337643
30
-56.5377845764
70
192
0
VERTEX
8
12
10
179.0208435059
20
-1.1676112413
30
-57.3634185791
70
192
0
VERTEX
8
12
10
179.0208587646
20
-0.8256337643
30
-58.1890525818
70
192
0
VERTEX
8
12
10
179.0208740234
20
0
30
-58.5310287476
70
192
0
VERTEX
8
12
10
179.0208587646
20
0.8256337643
30
-58.1890525818
70
192
0
VERTEX
8
12
10
179.0208435059
20
1.1676112413
30
-57.3634185791
70
192
0
VERTEX
8
12
10
171.9067535400
20
0.6687628031
30
-50.5213203430
70
192
0
VERTEX
8
12
10
172.0848083496
20
0
30
-50.3091201782
70
192
0
VERTEX
8
12
10
171.9067535400
20
-0.6687628031
30
-50.5213203430
70
192
0
VERTEX
8
12
10
171.4768981934
20
-0.9457643032
30
-51.0336341858
70
192
0
VERTEX
8
12
10
171.0470428467
20
-0.6687628031
30
-51.5459480286
70
192
0
VERTEX
8
12
10
170.8689880371
20
0
30
-51.7581481934
70
192
0
VERTEX
8
12
10
171.0470428467
20
0.6687628031
30
-51.5459480286
70
192
0
VERTEX
8
12
10
171.4768981934
20
0.9457643032
30
-51.0336341858
70
192
0
VERTEX
8
12
10
0
20
0
30
0
70
128
71
1
72
9
73
10
74
2
0
VERTEX
8
12
10
0
20
0
30
0
70
128
71
2
72
10
73
11
74
3
0
VERTEX
8
12
10
0
20
0
30
0
70
128
71
3
72
11
73
12
74
4
0
VERTEX
8
12
10
0
20
0
30
0
70
128
71
4
72
12
73
13
74
5
0
VERTEX
8
12
10
0
20
0
30
0
70
128
71
5
72
13
73
14
74
6
0
VERTEX
8
12
10
0
20
0
30
0
70
128
71
6
72
14
73
15
74
7
0
VERTEX
8
12
10
0
20
0
30
0
70
128
71
7
72
15
73
16
74
8
0
VERTEX
8
12
10
0
20
0
30
0
70
128
71
8
72
16
73
9
74
1
0
SEQEND
8
12
0
POLYLINE
66
1
8
12
62
12
70
64
0
VERTEX
8
12
10
171.9067535400
20
0.6687628031
30
-50.5213203430
70
192
0
VERTEX
8
12
10
172.0848083496
20
0
30
-50.3091201782
70
192
0
VERTEX
8
12
10
171.9067535400
20
-0.6687628031
30
-50.5213203430
70
192
0
VERTEX
8
12
10
171.4768981934
20
-0.9457643032
30
-51.0336341858
70
192
0
VERTEX
8
12
10
171.0470428467
20
-0.6687628031
30
-51.5459480286
70
192
0
VERTEX
8
12
10
170.8689880371
20
0
30
-51.7581481934
70
192
0
VERTEX
8
12
10
171.0470428467
20
0.6687628031
30
-51.5459480286
70
192
0
VERTEX
8
12
10
171.4768981934
20
0.9457643032
30
-51.0336341858
70
192
0
VERTEX
8
12
10
170.6250152588
20
0.5416981578
30
-43.0841331482
70
192
0
VERTEX
8
12
10
170.8459777832
20
0
30
-43.0451660156
70
192
0
VERTEX
8
12
10
170.6250152588
20
-0.5416981578
30
-43.0841331482
70
192
0
VERTEX
8
12
10
170.0915527344
20
-0.7660695314
30
-43.1782112122
70
192
0
VERTEX
8
12
10
169.5580902100
20
-0.5416981578
30
-43.2722892761
70
192
0
VERTEX
8
12
10
169.3371276855
20
0
30
-43.3112564087
70
192
0
VERTEX
8
12
10
169.5580902100
20
0.5416981578
30
-43.2722892761
70
192
0
VERTEX
8
12
10
170.0915527344
20
0.7660695314
30
-43.1782112122
70
192
0
VERTEX
8
12
10
0
20
0
30
0
70
128
71
1
72
9
73
10
74
2
0
VERTEX
8
12
10
0
20
0
30
0
70
128
71
2
72
10
73
11
74
3
0
VERTEX
8
12
10
0
20
0
30
0
70
128
71
3
72
11
73
12
74
4
0
VERTEX
8
12
10
0
20
0
30
0
70
128
71
4
72
12
73
13
74
5
0
VERTEX
8
12
10
0
20
0
30
0
70
128
71
5
72
13
73
14
74
6
0
VERTEX
8
12
10
0
20
0
30
0
70
128
71
6
72
14
73
15
74
7
0
VERTEX
8
12
10
0
20
0
30
0
70
128
71
7
72
15
73
16
74
8
0
VERTEX
8
12
10
0
20
0
30
0
70
128
71
8
72
16
73
9
74
1
0
SEQEND
8
12
0
POLYLINE
66
1
8
9
62
9
70
64
0
VERTEX
8
9
10
91.4922561646
20
1.3943806887
30
-3.5921492577
70
192
0
VERTEX
8
9
10
93.1934356689
20
-1.0040321350
30
-2.4235777855
70
192
0
VERTEX
8
9
10
93.0239944458
20
-2.8143100739
30
0.1660465449
70
192
0
VERTEX
8
9
10
91.0830917358
20
-2.9759652615
30
2.6597874165
70
192
0
VERTEX
8
9
10
88.5077438354
20
-1.3943806887
30
3.5968835354
70
192
0
VERTEX
8
9
10
86.8065643311
20
1.0040321350
30
2.4283120632
70
192
0
VERTEX
8
9
10
86.9760055542
20
2.8143100739
30
-0.1613122672
70
192
0
VERTEX
8
9
10
88.9169082642
20
2.9759652615
30
-2.6550531387
70
192
0
VERTEX
8
9
10
116.3955993652
20
29.3859825134
30
17.6048755646
70
192
0
VERTEX
8
9
10
118.0967788696
20
26.9875698090
30
18.7734470367
70
192
0
VERTEX
8
9
10
117.9273376465
20
25.1772918701
30
21.3630714417
70
192
0
VERTEX
8
9
10
115.9864349365
20
25.0156364441
30
23.8568134308
70
192
0
VERTEX
8
9
10
113.4110870361
20
26.5972213745
30
24.7939090729
70
192
0
VERTEX
8
9
10
111.7099075317
20
28.9956340790
30
23.6253376007
70
192
0
VERTEX
8
9
10
111.8793487549
20
30.8059120178
30
21.0357131958
70
192
0
VERTEX
8
9
10
113.8202514648
20
30.9675674438
30
18.5419731140
70
192
0
VERTEX
8
9
10
0
20
0
30
0
70
128
71
1
72
9
73
10
74
2
0
VERTEX
8
9
10
0
20
0
30
0
70
128
71
2
72
10
73
11
74
3
0
VERTEX
8
9
10
0
20
0
30
0
70
128
71
3
72
11
73
12
74
4
0
VERTEX
8
9
10
0
20
0
30
0
70
128
71
4
72
12
73
13
74
5
0
VERTEX
8
9
10
0
20
0
30
0
70
128
71
5
72
13
73
14
74
6
0
VERTEX
8
9
10
0
20
0
30
0
70
128
71
6
72
14
73
15
74
7
0
VERTEX
8
9
10
0
20
0
30
0
70
128
71
7
72
15
73
16
74
8
0
VERTEX
8
9
10
0
20
0
30
0
70
128
71
8
72
16
73
9
74
1
0
SEQEND
8
9
0
POLYLINE
66
1
8
9
62
9
70
64
0
VERTEX
8
9
10
116.3955993652
20
29.3859825134
30
17.6048755646
70
192
0
VERTEX
8
9
10
118.0967788696
20
26.9875698090
30
18.7734470367
70
192
0
VERTEX
8
9
10
117.9273376465
20
25.1772918701
30
21.3630714417
70
192
0
VERTEX
8
9
10
115.9864349365
20
25.0156364441
30
23.8568134308
70
192
0
VERTEX
8
9
10
113.4110870361
20
26.5972213745
30
24.7939090729
70
192
0
VERTEX
8
9
10
111.7099075317
20
28.9956340790
30
23.6253376007
70
192
0
VERTEX
8
9
10
111.8793487549
20
30.8059120178
30
21.0357131958
70
192
0
VERTEX
8
9
10
113.8202514648
20
30.9675674438
30
18.5419731140
70
192
0
VERTEX
8
9
10
136.2837829590
20
51.7942466736
30
35.4574279785
70
192
0
VERTEX
8
9
10
137.6617431641
20
49.8515319824
30
36.4039688110
70
192
0
VERTEX
8
9
10
137.5244903564
20
48.3852081299
30
38.5015640259
70
192
0
VERTEX
8
9
10
135.9523620605
20
48.2542648315
30
40.5214920044
70
192
0
VERTEX
8
9
10
133.8663330078
20
49.5353507996
30
41.2805404663
70
192
0
VERTEX
8
9
10
132.4883728027
20
51.4780654907
30
40.3339996338
70
192
0
VERTEX
8
9
10
132.6256256104
20
52.9443893433
30
38.2364044189
70
192
0
VERTEX
8
9
10
134.1977539063
20
53.0753326416
30
36.2164764404
70
192
0
VERTEX
8
9
10
0
20
0
30
0
70
128
71
1
72
9
73
10
74
2
0
VERTEX
8
9
10
0
20
0
30
0
70
128
71
2
72
10
73
11
74
3
0
VERTEX
8
9
10
0
20
0
30
0
70
128
71
3
72
11
73
12
74
4
0
VERTEX
8
9
10
0
20
0
30
0
70
128
71
4
72
12
73
13
74
5
0
VERTEX
8
9
10
0
20
0
30
0
70
128
71
5
72
13
73
14
74
6
0
VERTEX
8
9
10
0
20
0
30
0
70
128
71
6
72
14
73
15
74
7
0
VERTEX
8
9
10
0
20
0
30
0
70
128
71
7
72
15
73
16
74
8
0
VERTEX
8
9
10
0
20
0
30
0
70
128
71
8
72
16
73
9
74
1
0
SEQEND
8
9
0
POLYLINE
66
1
8
9
62
9
70
64
0
VERTEX
8
9
10
136.2837829590
20
51.7942466736
30
35.4574279785
70
192
0
VERTEX
8
9
10
137.6617431641
20
49.8515319824
30
36.4039688110
70
192
0
VERTEX
8
9
10
137.5244903564
20
48.3852081299
30
38.5015640259
70
192
0
VERTEX
8
9
10
135.9523620605
20
48.2542648315
30
40.5214920044
70
192
0
VERTEX
8
9
10
133.8663330078
20
49.5353507996
30
41.2805404663
70
192
0
VERTEX
8
9
10
132.4883728027
20
51.4780654907
30
40.3339996338
70
192
0
VERTEX
8
9
10
132.6256256104
20
52.9443893433
30
38.2364044189
70
192
0
VERTEX
8
9
10
134.1977539063
20
53.0753326416
30
36.2164764404
70
192
0
VERTEX
8
9
10
152.3932037354
20
69.9449462891
30
49.9179916382
70
192
0
VERTEX
8
9
10
153.5093536377
20
68.3713455200
30
50.6846885681
70
192
0
VERTEX
8
9
10
153.3981781006
20
67.1836242676
30
52.3837432861
70
192
0
VERTEX
8
9
10
152.1247558594
20
67.0775604248
30
54.0198860168
70
192
0
VERTEX
8
9
10
150.4350738525
20
68.1152343750
30
54.6347122192
70
192
0
VERTEX
8
9
10
149.3189239502
20
69.6888351440
30
53.8680152893
70
192
0
VERTEX
8
9
10
149.4300994873
20
70.8765563965
30
52.1689605713
70
192
0
VERTEX
8
9
10
150.7035217285
20
70.9826202393
30
50.5328178406
70
192
0
VERTEX
8
9
10
0
20
0
30
0
70
128
71
1
72
9
73
10
74
2
0
VERTEX
8
9
10
0
20
0
30
0
70
128
71
2
72
10
73
11
74
3
0
VERTEX
8
9
10
0
20
0
30
0
70
128
71
3
72
11
73
12
74
4
0
VERTEX
8
9
10
0
20
0
30
0
70
128
71
4
72
12
73
13
74
5
0
VERTEX
8
9
10
0
20
0
30
0
70
128
71
5
72
13
73
14
74
6
0
VERTEX
8
9
10
0
20
0
30
0
70
128
71
6
72
14
73
15
74
7
0
VERTEX
8
9
10
0
20
0
30
0
70
128
71
7
72
15
73
16
74
8
0
VERTEX
8
9
10
0
20
0
30
0
70
128
71
8
72
16
73
9
74
1
0
SEQEND
8
9
0
POLYLINE
66
1
8
9
62
9
70
64
0
VERTEX
8
9
10
152.3932037354
20
69.9449462891
30
49.9179916382
70
192
0
VERTEX
8
9
10
153.5093536377
20
68.3713455200
30
50.6846885681
70
192
0
VERTEX
8
9
10
153.3981781006
20
67.1836242676
30
52.3837432861
70
192
0
VERTEX
8
9
10
152.1247558594
20
67.0775604248
30
54.0198860168
70
192
0
VERTEX
8
9
10
150.4350738525
20
68.1152343750
30
54.6347122192
70
192
0
VERTEX
8
9
10
149.3189239502
20
69.6888351440
30
53.8680152893
70
192
0
VERTEX
8
9
10
149.4300994873
20
70.8765563965
30
52.1689605713
70
192
0
VERTEX
8
9
10
150.7035217285
20
70.9826202393
30
50.5328178406
70
192
0
VERTEX
8
9
10
165.4418487549
20
84.6470031738
30
61.6310462952
70
192
0
VERTEX
8
9
10
166.3459320068
20
83.3723907471
30
62.2520751953
70
192
0
VERTEX
8
9
10
166.2558746338
20
82.4103317261
30
63.6283073425
70
192
0
VERTEX
8
9
10
165.2244110107
20
82.3244247437
30
64.9535827637
70
192
0
VERTEX
8
9
10
163.8557586670
20
83.1649475098
30
65.4515991211
70
192
0
VERTEX
8
9
10
162.9516754150
20
84.4395599365
30
64.8305664063
70
192
0
VERTEX
8
9
10
163.0417327881
20
85.4016189575
30
63.4543342590
70
192
0
VERTEX
8
9
10
164.0731964111
20
85.4875259399
30
62.1290588379
70
192
0
VERTEX
8
9
10
0
20
0
30
0
70
128
71
1
72
9
73
10
74
2
0
VERTEX
8
9
10
0
20
0
30
0
70
128
71
2
72
10
73
11
74
3
0
VERTEX
8
9
10
0
20
0
30
0
70
128
71
3
72
11
73
12
74
4
0
VERTEX
8
9
10
0
20
0
30
0
70
128
71
4
72
12
73
13
74
5
0
VERTEX
8
9
10
0
20
0
30
0
70
128
71
5
72
13
73
14
74
6
0
VERTEX
8
9
10
0
20
0
30
0
70
128
71
6
72
14
73
15
74
7
0
VERTEX
8
9
10
0
20
0
30
0
70
128
71
7
72
15
73
16
74
8
0
VERTEX
8
9
10
0
20
0
30
0
70
128
71
8
72
16
73
9
74
1
0
SEQEND
8
9
0
POLYLINE
66
1
8
9
62
9
70
64
0
VERTEX
8
9
10
165.4418487549
20
84.6470031738
30
61.6310462952
70
192
0
VERTEX
8
9
10
166.3459320068
20
83.3723907471
30
62.2520751953
70
192
0
VERTEX
8
9
10
166.2558746338
20
82.4103317261
30
63.6283073425
70
192
0
VERTEX
8
9
10
165.2244110107
20
82.3244247437
30
64.9535827637
70
192
0
VERTEX
8
9
10
163.8557586670
20
83.1649475098
30
65.4515991211
70
192
0
VERTEX
8
9
10
162.9516754150
20
84.4395599365
30
64.8305664063
70
192
0
VERTEX
8
9
10
163.0417327881
20
85.4016189575
30
63.4543342590
70
192
0
VERTEX
8
9
10
164.0731964111
20
85.4875259399
30
62.1290588379
70
192
0
VERTEX
8
9
10
176.0112457275
20
96.5556793213
30
71.1186218262
70
192
0
VERTEX
8
9
10
176.7435455322
20
95.5232391357
30
71.6216583252
70
192
0
VERTEX
8
9
10
176.6706085205
20
94.7439727783
30
72.7364044189
70
192
0
VERTEX
8
9
10
175.8351135254
20
94.6743850708
30
73.8098831177
70
192
0
VERTEX
8
9
10
174.7265167236
20
95.3552093506
30
74.2132720947
70
192
0
VERTEX
8
9
10
173.9942169189
20
96.3876495361
30
73.7102355957
70
192
0
VERTEX
8
9
10
174.0671539307
20
97.1669158936
30
72.5954895020
70
192
0
VERTEX
8
9
10
174.9026489258
20
97.2365036011
30
71.5220184326
70
192
0
VERTEX
8
9
10
0
20
0
30
0
70
128
71
1
72
9
73
10
74
2
0
VERTEX
8
9
10
0
20
0
30
0
70
128
71
2
72
10
73
11
74
3
0
VERTEX
8
9
10
0
20
0
30
0
70
128
71
3
72
11
73
12
74
4
0
VERTEX
8
9
10
0
20
0
30
0
70
128
71
4
72
12
73
13
74
5
0
VERTEX
8
9
10
0
20
0
30
0
70
128
71
5
72
13
73
14
74
6
0
VERTEX
8
9
10
0
20
0
30
0
70
128
71
6
72
14
73
15
74
7
0
VERTEX
8
9
10
0
20
0
30
0
70
128
71
7
72
15
73
16
74
8
0
VERTEX
8
9
10
0
20
0
30
0
70
128
71
8
72
16
73
9
74
1
0
SEQEND
8
9
0
POLYLINE
66
1
8
9
62
9
70
64
0
VERTEX
8
9
10
176.0112457275
20
96.5556793213
30
71.1186218262
70
192
0
VERTEX
8
9
10
176.7435455322
20
95.5232391357
30
71.6216583252
70
192
0
VERTEX
8
9
10
176.6706085205
20
94.7439727783
30
72.7364044189
70
192
0
VERTEX
8
9
10
175.8351135254
20
94.6743850708
30
73.8098831177
70
192
0
VERTEX
8
9
10
174.7265167236
20
95.3552093506
30
74.2132720947
70
192
0
VERTEX
8
9
10
173.9942169189
20
96.3876495361
30
73.7102355957
70
192
0
VERTEX
8
9
10
174.0671539307
20
97.1669158936
30
72.5954895020
70
192
0
VERTEX
8
9
10
174.9026489258
20
97.2365036011
30
71.5220184326
70
192
0
VERTEX
8
9
10
184.5724487305
20
106.2017059326
30
78.8035583496
70
192
0
VERTEX
8
9
10
185.1656188965
20
105.3654327393
30
79.2110214233
70
192
0
VERTEX
8
9
10
185.1065368652
20
104.7342224121
30
80.1139602661
70
192
0
VERTEX
8
9
10
184.4297943115
20
104.6778640747
30
80.9834747314
70
192
0
VERTEX
8
9
10
183.5318298340
20
105.2293243408
30
81.3102264404
70
192
0
VERTEX
8
9
10
182.9386596680
20
106.0655975342
30
80.9027633667
70
192
0
VERTEX
8
9
10
182.9977416992
20
106.6968078613
30
79.9998245239
70
192
0
VERTEX
8
9
10
183.6744842529
20
106.7531661987
30
79.1303100586
70
192
0
VERTEX
8
9
10
0
20
0
30
0
70
128
71
1
72
9
73
10
74
2
0
VERTEX
8
9
10
0
20
0
30
0
70
128
71
2
72
10
73
11
74
3
0
VERTEX
8
9
10
0
20
0
30
0
70
128
71
3
72
11
73
12
74
4
0
VERTEX
8
9
10
0
20
0
30
0
70
128
71
4
72
12
73
13
74
5
0
VERTEX
8
9
10
0
20
0
30
0
70
128
71
5
72
13
73
14
74
6
0
VERTEX
8
9
10
0
20
0
30
0
70
128
71
6
72
14
73
15
74
7
0
VERTEX
8
9
10
0
20
0
30
0
70
128
71
7
72
15
73
16
74
8
0
VERTEX
8
9
10
0
20
0
30
0
70
128
71
8
72
16
73
9
74
1
0
SEQEND
8
9
0
POLYLINE
66
1
8
9
62
9
70
64
0
VERTEX
8
9
10
184.5724487305
20
106.2017059326
30
78.8035583496
70
192
0
VERTEX
8
9
10
185.1656188965
20
105.3654327393
30
79.2110214233
70
192
0
VERTEX
8
9
10
185.1065368652
20
104.7342224121
30
80.1139602661
70
192
0
VERTEX
8
9
10
184.4297943115
20
104.6778640747
30
80.9834747314
70
192
0
VERTEX
8
9
10
183.5318298340
20
105.2293243408
30
81.3102264404
70
192
0
VERTEX
8
9
10
182.9386596680
20
106.0655975342
30
80.9027633667
70
192
0
VERTEX
8
9
10
182.9977416992
20
106.6968078613
30
79.9998245239
70
192
0
VERTEX
8
9
10
183.6744842529
20
106.7531661987
30
79.1303100586
70
192
0
VERTEX
8
9
10
187.9957885742
20
114.7437896729
30
87.2756118774
70
192
0
VERTEX
8
9
10
188.5279846191
20
114.1474685669
30
87.6753540039
70
192
0
VERTEX
8
9
10
188.4284057617
20
113.5551300049
30
88.3370437622
70
192
0
VERTEX
8
9
10
187.7553253174
20
113.3137588501
30
88.8730773926
70
192
0
VERTEX
8
9
10
186.9030761719
20
113.5647277832
30
88.9694747925
70
192
0
VERTEX
8
9
10
186.3708801270
20
114.1610488892
30
88.5697326660
70
192
0
VERTEX
8
9
10
186.4704589844
20
114.7533874512
30
87.9080429077
70
192
0
VERTEX
8
9
10
187.1435394287
20
114.9947586060
30
87.3720092773
70
192
0
VERTEX
8
9
10
0
20
0
30
0
70
128
71
1
72
9
73
10
74
2
0
VERTEX
8
9
10
0
20
0
30
0
70
128
71
2
72
10
73
11
74
3
0
VERTEX
8
9
10
0
20
0
30
0
70
128
71
3
72
11
73
12
74
4
0
VERTEX
8
9
10
0
20
0
30
0
70
128
71
4
72
12
73
13
74
5
0
VERTEX
8
9
10
0
20
0
30
0
70
128
71
5
72
13
73
14
74
6
0
VERTEX
8
9
10
0
20
0
30
0
70
128
71
6
72
14
73
15
74
7
0
VERTEX
8
9
10
0
20
0
30
0
70
128
71
7
72
15
73
16
74
8
0
VERTEX
8
9
10
0
20
0
30
0
70
128
71
8
72
16
73
9
74
1
0
SEQEND
8
9
0
POLYLINE
66
1
8
9
62
9
70
64
0
VERTEX
8
9
10
187.9957885742
20
114.7437896729
30
87.2756118774
70
192
0
VERTEX
8
9
10
188.5279846191
20
114.1474685669
30
87.6753540039
70
192
0
VERTEX
8
9
10
188.4284057617
20
113.5551300049
30
88.3370437622
70
192
0
VERTEX
8
9
10
187.7553253174
20
113.3137588501
30
88.8730773926
70
192
0
VERTEX
8
9
10
186.9030761719
20
113.5647277832
30
88.9694747925
70
192
0
VERTEX
8
9
10
186.3708801270
20
114.1610488892
30
88.5697326660
70
192
0
VERTEX
8
9
10
186.4704589844
20
114.7533874512
30
87.9080429077
70
192
0
VERTEX
8
9
10
187.1435394287
20
114.9947586060
30
87.3720092773
70
192
0
VERTEX
8
9
10
187.3932647705
20
121.2335205078
30
95.0328826904
70
192
0
VERTEX
8
9
10
187.8353881836
20
120.8163604736
30
95.4259185791
70
192
0
VERTEX
8
9
10
187.7436828613
20
120.2707061768
30
95.8926391602
70
192
0
VERTEX
8
9
10
187.1718292236
20
119.9161911011
30
96.1596374512
70
192
0
VERTEX
8
9
10
186.4548492432
20
119.9604797363
30
96.0705261230
70
192
0
VERTEX
8
9
10
186.0127258301
20
120.3776397705
30
95.6774902344
70
192
0
VERTEX
8
9
10
186.1044311523
20
120.9232940674
30
95.2107696533
70
192
0
VERTEX
8
9
10
186.6762847900
20
121.2778091431
30
94.9437713623
70
192
0
VERTEX
8
9
10
0
20
0
30
0
70
128
71
1
72
9
73
10
74
2
0
VERTEX
8
9
10
0
20
0
30
0
70
128
71
2
72
10
73
11
74
3
0
VERTEX
8
9
10
0
20
0
30
0
70
128
71
3
72
11
73
12
74
4
0
VERTEX
8
9
10
0
20
0
30
0
70
128
71
4
72
12
73
13
74
5
0
VERTEX
8
9
10
0
20
0
30
0
70
128
71
5
72
13
73
14
74
6
0
VERTEX
8
9
10
0
20
0
30
0
70
128
71
6
72
14
73
15
74
7
0
VERTEX
8
9
10
0
20
0
30
0
70
128
71
7
72
15
73
16
74
8
0
VERTEX
8
9
10
0
20
0
30
0
70
128
71
8
72
16
73
9
74
1
0
SEQEND
8
9
0
POLYLINE
66
1
8
9
62
9
70
64
0
VERTEX
8
9
10
187.3932647705
20
121.2335205078
30
95.0328826904
70
192
0
VERTEX
8
9
10
187.8353881836
20
120.8163604736
30
95.4259185791
70
192
0
VERTEX
8
9
10
187.7436828613
20
120.2707061768
30
95.8926391602
70
192
0
VERTEX
8
9
10
187.1718292236
20
119.9161911011
30
96.1596374512
70
192
0
VERTEX
8
9
10
186.4548492432
20
119.9604797363
30
96.0705261230
70
192
0
VERTEX
8
9
10
186.0127258301
20
120.3776397705
30
95.6774902344
70
192
0
VERTEX
8
9
10
186.1044311523
20
120.9232940674
30
95.2107696533
70
192
0
VERTEX
8
9
10
186.6762847900
20
121.2778091431
30
94.9437713623
70
192
0
VERTEX
8
9
10
184.2340087891
20
125.4973449707
30
101.2931289673
70
192
0
VERTEX
8
9
10
184.5749969482
20
125.2065124512
30
101.6711807251
70
192
0
VERTEX
8
9
10
184.5178375244
20
124.7174682617
30
101.9895324707
70
192
0
VERTEX
8
9
10
184.0960083008
20
124.3166809082
30
102.0616836548
70
192
0
VERTEX
8
9
10
183.5566101074
20
124.2389221191
30
101.8453903198
70
192
0
VERTEX
8
9
10
183.2156219482
20
124.5297546387
30
101.4673385620
70
192
0
VERTEX
8
9
10
183.2727813721
20
125.0187988281
30
101.1489868164
70
192
0
VERTEX
8
9
10
183.6946105957
20
125.4195861816
30
101.0768356323
70
192
0
VERTEX
8
9
10
0
20
0
30
0
70
128
71
1
72
9
73
10
74
2
0
VERTEX
8
9
10
0
20
0
30
0
70
128
71
2
72
10
73
11
74
3
0
VERTEX
8
9
10
0
20
0
30
0
70
128
71
3
72
11
73
12
74
4
0
VERTEX
8
9
10
0
20
0
30
0
70
128
71
4
72
12
73
13
74
5
0
VERTEX
8
9
10
0
20
0
30
0
70
128
71
5
72
13
73
14
74
6
0
VERTEX
8
9
10
0
20
0
30
0
70
128
71
6
72
14
73
15
74
7
0
VERTEX
8
9
10
0
20
0
30
0
70
128
71
7
72
15
73
16
74
8
0
VERTEX
8
9
10
0
20
0
30
0
70
128
71
8
72
16
73
9
74
1
0
SEQEND
8
9
0
POLYLINE
66
1
8
9
62
9
70
64
0
VERTEX
8
9
10
90.0006713867
20
25.4558429718
30
-25.4534759521
70
192
0
VERTEX
8
9
10
90.0009460449
20
0
30
-35.9972877502
70
192
0
VERTEX
8
9
10
90.0006713867
20
-25.4558429718
30
-25.4534759521
70
192
0
VERTEX
8
9
10
90
20
-35.9996566772
30
0.0023671386
70
192
0
VERTEX
8
9
10
89.9993286133
20
-25.4558429718
30
25.4582099915
70
192
0
VERTEX
8
9
10
89.9990539551
20
0
30
36.0020256042
70
192
0
VERTEX
8
9
10
89.9993286133
20
25.4558429718
30
25.4582099915
70
192
0
VERTEX
8
9
10
90
20
35.9996566772
30
0.0023671386
70
192
0
VERTEX
8
9
10
117.9273376465
20
-25.1772918701
30
21.3630714417
70
192
0
VERTEX
8
9
10
118.0967788696
20
-26.9875698090
30
18.7734470367
70
192
0
VERTEX
8
9
10
116.3955993652
20
-29.3859825134
30
17.6048755646
70
192
0
VERTEX
8
9
10
113.8202514648
20
-30.9675674438
30
18.5419731140
70
192
0
VERTEX
8
9
10
111.8793487549
20
-30.8059120178
30
21.0357131958
70
192
0
VERTEX
8
9
10
111.7099075317
20
-28.9956340790
30
23.6253376007
70
192
0
VERTEX
8
9
10
113.4110870361
20
-26.5972213745
30
24.7939090729
70
192
0
VERTEX
8
9
10
115.9864349365
20
-25.0156364441
30
23.8568134308
70
192
0
VERTEX
8
9
10
0
20
0
30
0
70
128
71
1
72
9
73
10
74
2
0
VERTEX
8
9
10
0
20
0
30
0
70
128
71
2
72
10
73
11
74
3
0
VERTEX
8
9
10
0
20
0
30
0
70
128
71
3
72
11
73
12
74
4
0
VERTEX
8
9
10
0
20
0
30
0
70
128
71
4
72
12
73
13
74
5
0
VERTEX
8
9
10
0
20
0
30
0
70
128
71
5
72
13
73
14
74
6
0
VERTEX
8
9
10
0
20
0
30
0
70
128
71
6
72
14
73
15
74
7
0
VERTEX
8
9
10
0
20
0
30
0
70
128
71
7
72
15
73
16
74
8
0
VERTEX
8
9
10
0
20
0
30
0
70
128
71
8
72
16
73
9
74
1
0
SEQEND
8
9
0
POLYLINE
66
1
8
9
62
9
70
64
0
VERTEX
8
9
10
117.9273376465
20
-25.1772918701
30
21.3630714417
70
192
0
VERTEX
8
9
10
118.0967788696
20
-26.9875698090
30
18.7734470367
70
192
0
VERTEX
8
9
10
116.3955993652
20
-29.3859825134
30
17.6048755646
70
192
0
VERTEX
8
9
10
113.8202514648
20
-30.9675674438
30
18.5419731140
70
192
0
VERTEX
8
9
10
111.8793487549
20
-30.8059120178
30
21.0357131958
70
192
0
VERTEX
8
9
10
111.7099075317
20
-28.9956340790
30
23.6253376007
70
192
0
VERTEX
8
9
10
113.4110870361
20
-26.5972213745
30
24.7939090729
70
192
0
VERTEX
8
9
10
115.9864349365
20
-25.0156364441
30
23.8568134308
70
192
0
VERTEX
8
9
10
137.5244903564
20
-48.3852081299
30
38.5015640259
70
192
0
VERTEX
8
9
10
137.6617431641
20
-49.8515319824
30
36.4039688110
70
192
0
VERTEX
8
9
10
136.2837829590
20
-51.7942466736
30
35.4574279785
70
192
0
VERTEX
8
9
10
134.1977539063
20
-53.0753326416
30
36.2164764404
70
192
0
VERTEX
8
9
10
132.6256256104
20
-52.9443893433
30
38.2364044189
70
192
0
VERTEX
8
9
10
132.4883728027
20
-51.4780654907
30
40.3339996338
70
192
0
VERTEX
8
9
10
133.8663330078
20
-49.5353507996
30
41.2805404663
70
192
0
VERTEX
8
9
10
135.9523620605
20
-48.2542648315
30
40.5214920044
70
192
0
VERTEX
8
9
10
0
20
0
30
0
70
128
71
1
72
9
73
10
74
2
0
VERTEX
8
9
10
0
20
0
30
0
70
128
71
2
72
10
73
11
74
3
0
VERTEX
8
9
10
0
20
0
30
0
70
128
71
3
72
11
73
12
74
4
0
VERTEX
8
9
10
0
20
0
30
0
70
128
71
4
72
12
73
13
74
5
0
VERTEX
8
9
10
0
20
0
30
0
70
128
71
5
72
13
73
14
74
6
0
VERTEX
8
9
10
0
20
0
30
0
70
128
71
6
72
14
73
15
74
7
0
VERTEX
8
9
10
0
20
0
30
0
70
128
71
7
72
15
73
16
74
8
0
VERTEX
8
9
10
0
20
0
30
0
70
128
71
8
72
16
73
9
74
1
0
SEQEND
8
9
0
POLYLINE
66
1
8
9
62
9
70
64
0
VERTEX
8
9
10
137.5244903564
20
-48.3852081299
30
38.5015640259
70
192
0
VERTEX
8
9
10
137.6617431641
20
-49.8515319824
30
36.4039688110
70
192
0
VERTEX
8
9
10
136.2837829590
20
-51.7942466736
30
35.4574279785
70
192
0
VERTEX
8
9
10
134.1977539063
20
-53.0753326416
30
36.2164764404
70
192
0
VERTEX
8
9
10
132.6256256104
20
-52.9443893433
30
38.2364044189
70
192
0
VERTEX
8
9
10
132.4883728027
20
-51.4780654907
30
40.3339996338
70
192
0
VERTEX
8
9
10
133.8663330078
20
-49.5353507996
30
41.2805404663
70
192
0
VERTEX
8
9
10
135.9523620605
20
-48.2542648315
30
40.5214920044
70
192
0
VERTEX
8
9
10
153.3981781006
20
-67.1836242676
30
52.3837432861
70
192
0
VERTEX
8
9
10
153.5093536377
20
-68.3713455200
30
50.6846885681
70
192
0
VERTEX
8
9
10
152.3932037354
20
-69.9449462891
30
49.9179916382
70
192
0
VERTEX
8
9
10
150.7035217285
20
-70.9826202393
30
50.5328178406
70
192
0
VERTEX
8
9
10
149.4300994873
20
-70.8765563965
30
52.1689605713
70
192
0
VERTEX
8
9
10
149.3189239502
20
-69.6888351440
30
53.8680152893
70
192
0
VERTEX
8
9
10
150.4350738525
20
-68.1152343750
30
54.6347122192
70
192
0
VERTEX
8
9
10
152.1247558594
20
-67.0775604248
30
54.0198860168
70
192
0
VERTEX
8
9
10
0
20
0
30
0
70
128
71
1
72
9
73
10
74
2
0
VERTEX
8
9
10
0
20
0
30
0
70
128
71
2
72
10
73
11
74
3
0
VERTEX
8
9
10
0
20
0
30
0
70
128
71
3
72
11
73
12
74
4
0
VERTEX
8
9
10
0
20
0
30
0
70
128
71
4
72
12
73
13
74
5
0
VERTEX
8
9
10
0
20
0
30
0
70
128
71
5
72
13
73
14
74
6
0
VERTEX
8
9
10
0
20
0
30
0
70
128
71
6
72
14
73
15
74
7
0
VERTEX
8
9
10
0
20
0
30
0
70
128
71
7
72
15
73
16
74
8
0
VERTEX
8
9
10
0
20
0
30
0
70
128
71
8
72
16
73
9
74
1
0
SEQEND
8
9
0
POLYLINE
66
1
8
9
62
9
70
64
0
VERTEX
8
9
10
153.3981781006
20
-67.1836242676
30
52.3837432861
70
192
0
VERTEX
8
9
10
153.5093536377
20
-68.3713455200
30
50.6846885681
70
192
0
VERTEX
8
9
10
152.3932037354
20
-69.9449462891
30
49.9179916382
70
192
0
VERTEX
8
9
10
150.7035217285
20
-70.9826202393
30
50.5328178406
70
192
0
VERTEX
8
9
10
149.4300994873
20
-70.8765563965
30
52.1689605713
70
192
0
VERTEX
8
9
10
149.3189239502
20
-69.6888351440
30
53.8680152893
70
192
0
VERTEX
8
9
10
150.4350738525
20
-68.1152343750
30
54.6347122192
70
192
0
VERTEX
8
9
10
152.1247558594
20
-67.0775604248
30
54.0198860168
70
192
0
VERTEX
8
9
10
166.2558746338
20
-82.4103317261
30
63.6283073425
70
192
0
VERTEX
8
9
10
166.3459320068
20
-83.3723907471
30
62.2520751953
70
192
0
VERTEX
8
9
10
165.4418487549
20
-84.6470031738
30
61.6310462952
70
192
0
VERTEX
8
9
10
164.0731964111
20
-85.4875259399
30
62.1290588379
70
192
0
VERTEX
8
9
10
163.0417327881
20
-85.4016189575
30
63.4543342590
70
192
0
VERTEX
8
9
10
162.9516754150
20
-84.4395599365
30
64.8305664063
70
192
0
VERTEX
8
9
10
163.8557586670
20
-83.1649475098
30
65.4515991211
70
192
0
VERTEX
8
9
10
165.2244110107
20
-82.3244247437
30
64.9535827637
70
192
0
VERTEX
8
9
10
0
20
0
30
0
70
128
71
1
72
9
73
10
74
2
0
VERTEX
8
9
10
0
20
0
30
0
70
128
71
2
72
10
73
11
74
3
0
VERTEX
8
9
10
0
20
0
30
0
70
128
71
3
72
11
73
12
74
4
0
VERTEX
8
9
10
0
20
0
30
0
70
128
71
4
72
12
73
13
74
5
0
VERTEX
8
9
10
0
20
0
30
0
70
128
71
5
72
13
73
14
74
6
0
VERTEX
8
9
10
0
20
0
30
0
70
128
71
6
72
14
73
15
74
7
0
VERTEX
8
9
10
0
20
0
30
0
70
128
71
7
72
15
73
16
74
8
0
VERTEX
8
9
10
0
20
0
30
0
70
128
71
8
72
16
73
9
74
1
0
SEQEND
8
9
0
POLYLINE
66
1
8
9
62
9
70
64
0
VERTEX
8
9
10
166.2558746338
20
-82.4103317261
30
63.6283073425
70
192
0
VERTEX
8
9
10
166.3459320068
20
-83.3723907471
30
62.2520751953
70
192
0
VERTEX
8
9
10
165.4418487549
20
-84.6470031738
30
61.6310462952
70
192
0
VERTEX
8
9
10
164.0731964111
20
-85.4875259399
30
62.1290588379
70
192
0
VERTEX
8
9
10
163.0417327881
20
-85.4016189575
30
63.4543342590
70
192
0
VERTEX
8
9
10
162.9516754150
20
-84.4395599365
30
64.8305664063
70
192
0
VERTEX
8
9
10
163.8557586670
20
-83.1649475098
30
65.4515991211
70
192
0
VERTEX
8
9
10
165.2244110107
20
-82.3244247437
30
64.9535827637
70
192
0
VERTEX
8
9
10
176.6706085205
20
-94.7439727783
30
72.7364044189
70
192
0
VERTEX
8
9
10
176.7435455322
20
-95.5232391357
30
71.6216583252
70
192
0
VERTEX
8
9
10
176.0112457275
20
-96.5556793213
30
71.1186218262
70
192
0
VERTEX
8
9
10
174.9026489258
20
-97.2365036011
30
71.5220184326
70
192
0
VERTEX
8
9
10
174.0671539307
20
-97.1669158936
30
72.5954895020
70
192
0
VERTEX
8
9
10
173.9942169189
20
-96.3876495361
30
73.7102355957
70
192
0
VERTEX
8
9
10
174.7265167236
20
-95.3552093506
30
74.2132720947
70
192
0
VERTEX
8
9
10
175.8351135254
20
-94.6743850708
30
73.8098831177
70
192
0
VERTEX
8
9
10
0
20
0
30
0
70
128
71
1
72
9
73
10
74
2
0
VERTEX
8
9
10
0
20
0
30
0
70
128
71
2
72
10
73
11
74
3
0
VERTEX
8
9
10
0
20
0
30
0
70
128
71
3
72
11
73
12
74
4
0
VERTEX
8
9
10
0
20
0
30
0
70
128
71
4
72
12
73
13
74
5
0
VERTEX
8
9
10
0
20
0
30
0
70
128
71
5
72
13
73
14
74
6
0
VERTEX
8
9
10
0
20
0
30
0
70
128
71
6
72
14
73
15
74
7
0
VERTEX
8
9
10
0
20
0
30
0
70
128
71
7
72
15
73
16
74
8
0
VERTEX
8
9
10
0
20
0
30
0
70
128
71
8
72
16
73
9
74
1
0
SEQEND
8
9
0
POLYLINE
66
1
8
9
62
9
70
64
0
VERTEX
8
9
10
176.6706085205
20
-94.7439727783
30
72.7364044189
70
192
0
VERTEX
8
9
10
176.7435455322
20
-95.5232391357
30
71.6216583252
70
192
0
VERTEX
8
9
10
176.0112457275
20
-96.5556793213
30
71.1186218262
70
192
0
VERTEX
8
9
10
174.9026489258
20
-97.2365036011
30
71.5220184326
70
192
0
VERTEX
8
9
10
174.0671539307
20
-97.1669158936
30
72.5954895020
70
192
0
VERTEX
8
9
10
173.9942169189
20
-96.3876495361
30
73.7102355957
70
192
0
VERTEX
8
9
10
174.7265167236
20
-95.3552093506
30
74.2132720947
70
192
0
VERTEX
8
9
10
175.8351135254
20
-94.6743850708
30
73.8098831177
70
192
0
VERTEX
8
9
10
185.1065368652
20
-104.7342224121
30
80.1139602661
70
192
0
VERTEX
8
9
10
185.1656188965
20
-105.3654327393
30
79.2110214233
70
192
0
VERTEX
8
9
10
184.5724487305
20
-106.2017059326
30
78.8035583496
70
192
0
VERTEX
8
9
10
183.6744842529
20
-106.7531661987
30
79.1303100586
70
192
0
VERTEX
8
9
10
182.9977416992
20
-106.6968078613
30
79.9998245239
70
192
0
VERTEX
8
9
10
182.9386596680
20
-106.0655975342
30
80.9027633667
70
192
0
VERTEX
8
9
10
183.5318298340
20
-105.2293243408
30
81.3102264404
70
192
0
VERTEX
8
9
10
184.4297943115
20
-104.6778640747
30
80.9834747314
70
192
0
VERTEX
8
9
10
0
20
0
30
0
70
128
71
1
72
9
73
10
74
2
0
VERTEX
8
9
10
0
20
0
30
0
70
128
71
2
72
10
73
11
74
3
0
VERTEX
8
9
10
0
20
0
30
0
70
128
71
3
72
11
73
12
74
4
0
VERTEX
8
9
10
0
20
0
30
0
70
128
71
4
72
12
73
13
74
5
0
VERTEX
8
9
10
0
20
0
30
0
70
128
71
5
72
13
73
14
74
6
0
VERTEX
8
9
10
0
20
0
30
0
70
128
71
6
72
14
73
15
74
7
0
VERTEX
8
9
10
0
20
0
30
0
70
128
71
7
72
15
73
16
74
8
0
VERTEX
8
9
10
0
20
0
30
0
70
128
71
8
72
16
73
9
74
1
0
SEQEND
8
9
0
POLYLINE
66
1
8
9
62
9
70
64
0
VERTEX
8
9
10
185.1065368652
20
-104.7342224121
30
80.1139602661
70
192
0
VERTEX
8
9
10
185.1656188965
20
-105.3654327393
30
79.2110214233
70
192
0
VERTEX
8
9
10
184.5724487305
20
-106.2017059326
30
78.8035583496
70
192
0
VERTEX
8
9
10
183.6744842529
20
-106.7531661987
30
79.1303100586
70
192
0
VERTEX
8
9
10
182.9977416992
20
-106.6968078613
30
79.9998245239
70
192
0
VERTEX
8
9
10
182.9386596680
20
-106.0655975342
30
80.9027633667
70
192
0
VERTEX
8
9
10
183.5318298340
20
-105.2293243408
30
81.3102264404
70
192
0
VERTEX
8
9
10
184.4297943115
20
-104.6778640747
30
80.9834747314
70
192
0
VERTEX
8
9
10
188.4284057617
20
-113.5551300049
30
88.3370437622
70
192
0
VERTEX
8
9
10
188.5279846191
20
-114.1474685669
30
87.6753540039
70
192
0
VERTEX
8
9
10
187.9957885742
20
-114.7437896729
30
87.2756118774
70
192
0
VERTEX
8
9
10
187.1435394287
20
-114.9947586060
30
87.3720092773
70
192
0
VERTEX
8
9
10
186.4704589844
20
-114.7533874512
30
87.9080429077
70
192
0
VERTEX
8
9
10
186.3708801270
20
-114.1610488892
30
88.5697326660
70
192
0
VERTEX
8
9
10
186.9030761719
20
-113.5647277832
30
88.9694747925
70
192
0
VERTEX
8
9
10
187.7553253174
20
-113.3137588501
30
88.8730773926
70
192
0
VERTEX
8
9
10
0
20
0
30
0
70
128
71
1
72
9
73
10
74
2
0
VERTEX
8
9
10
0
20
0
30
0
70
128
71
2
72
10
73
11
74
3
0
VERTEX
8
9
10
0
20
0
30
0
70
128
71
3
72
11
73
12
74
4
0
VERTEX
8
9
10
0
20
0
30
0
70
128
71
4
72
12
73
13
74
5
0
VERTEX
8
9
10
0
20
0
30
0
70
128
71
5
72
13
73
14
74
6
0
VERTEX
8
9
10
0
20
0
30
0
70
128
71
6
72
14
73
15
74
7
0
VERTEX
8
9
10
0
20
0
30
0
70
128
71
7
72
15
73
16
74
8
0
VERTEX
8
9
10
0
20
0
30
0
70
128
71
8
72
16
73
9
74
1
0
SEQEND
8
9
0
POLYLINE
66
1
8
9
62
9
70
64
0
VERTEX
8
9
10
188.4284057617
20
-113.5551300049
30
88.3370437622
70
192
0
VERTEX
8
9
10
188.5279846191
20
-114.1474685669
30
87.6753540039
70
192
0
VERTEX
8
9
10
187.9957885742
20
-114.7437896729
30
87.2756118774
70
192
0
VERTEX
8
9
10
187.1435394287
20
-114.9947586060
30
87.3720092773
70
192
0
VERTEX
8
9
10
186.4704589844
20
-114.7533874512
30
87.9080429077
70
192
0
VERTEX
8
9
10
186.3708801270
20
-114.1610488892
30
88.5697326660
70
192
0
VERTEX
8
9
10
186.9030761719
20
-113.5647277832
30
88.9694747925
70
192
0
VERTEX
8
9
10
187.7553253174
20
-113.3137588501
30
88.8730773926
70
192
0
VERTEX
8
9
10
187.7436828613
20
-120.2707061768
30
95.8926391602
70
192
0
VERTEX
8
9
10
187.8353881836
20
-120.8163604736
30
95.4259185791
70
192
0
VERTEX
8
9
10
187.3932647705
20
-121.2335205078
30
95.0328826904
70
192
0
VERTEX
8
9
10
186.6762847900
20
-121.2778091431
30
94.9437713623
70
192
0
VERTEX
8
9
10
186.1044311523
20
-120.9232940674
30
95.2107696533
70
192
0
VERTEX
8
9
10
186.0127258301
20
-120.3776397705
30
95.6774902344
70
192
0
VERTEX
8
9
10
186.4548492432
20
-119.9604797363
30
96.0705261230
70
192
0
VERTEX
8
9
10
187.1718292236
20
-119.9161911011
30
96.1596374512
70
192
0
VERTEX
8
9
10
0
20
0
30
0
70
128
71
1
72
9
73
10
74
2
0
VERTEX
8
9
10
0
20
0
30
0
70
128
71
2
72
10
73
11
74
3
0
VERTEX
8
9
10
0
20
0
30
0
70
128
71
3
72
11
73
12
74
4
0
VERTEX
8
9
10
0
20
0
30
0
70
128
71
4
72
12
73
13
74
5
0
VERTEX
8
9
10
0
20
0
30
0
70
128
71
5
72
13
73
14
74
6
0
VERTEX
8
9
10
0
20
0
30
0
70
128
71
6
72
14
73
15
74
7
0
VERTEX
8
9
10
0
20
0
30
0
70
128
71
7
72
15
73
16
74
8
0
VERTEX
8
9
10
0
20
0
30
0
70
128
71
8
72
16
73
9
74
1
0
SEQEND
8
9
0
POLYLINE
66
1
8
9
62
9
70
64
0
VERTEX
8
9
10
187.7436828613
20
-120.2707061768
30
95.8926391602
70
192
0
VERTEX
8
9
10
187.8353881836
20
-120.8163604736
30
95.4259185791
70
192
0
VERTEX
8
9
10
187.3932647705
20
-121.2335205078
30
95.0328826904
70
192
0
VERTEX
8
9
10
186.6762847900
20
-121.2778091431
30
94.9437713623
70
192
0
VERTEX
8
9
10
186.1044311523
20
-120.9232940674
30
95.2107696533
70
192
0
VERTEX
8
9
10
186.0127258301
20
-120.3776397705
30
95.6774902344
70
192
0
VERTEX
8
9
10
186.4548492432
20
-119.9604797363
30
96.0705261230
70
192
0
VERTEX
8
9
10
187.1718292236
20
-119.9161911011
30
96.1596374512
70
192
0
VERTEX
8
9
10
184.5178375244
20
-124.7174682617
30
101.9895324707
70
192
0
VERTEX
8
9
10
184.5749969482
20
-125.2065124512
30
101.6711807251
70
192
0
VERTEX
8
9
10
184.2340087891
20
-125.4973449707
30
101.2931289673
70
192
0
VERTEX
8
9
10
183.6946105957
20
-125.4195861816
30
101.0768356323
70
192
0
VERTEX
8
9
10
183.2727813721
20
-125.0187988281
30
101.1489868164
70
192
0
VERTEX
8
9
10
183.2156219482
20
-124.5297546387
30
101.4673385620
70
192
0
VERTEX
8
9
10
183.5566101074
20
-124.2389221191
30
101.8453903198
70
192
0
VERTEX
8
9
10
184.0960083008
20
-124.3166809082
30
102.0616836548
70
192
0
VERTEX
8
9
10
0
20
0
30
0
70
128
71
1
72
9
73
10
74
2
0
VERTEX
8
9
10
0
20
0
30
0
70
128
71
2
72
10
73
11
74
3
0
VERTEX
8
9
10
0
20
0
30
0
70
128
71
3
72
11
73
12
74
4
0
VERTEX
8
9
10
0
20
0
30
0
70
128
71
4
72
12
73
13
74
5
0
VERTEX
8
9
10
0
20
0
30
0
70
128
71
5
72
13
73
14
74
6
0
VERTEX
8
9
10
0
20
0
30
0
70
128
71
6
72
14
73
15
74
7
0
VERTEX
8
9
10
0
20
0
30
0
70
128
71
7
72
15
73
16
74
8
0
VERTEX
8
9
10
0
20
0
30
0
70
128
71
8
72
16
73
9
74
1
0
SEQEND
8
9
0
ENDSEC
0
EOF
